  0
SECTION
  2
HEADER
  9
$EXTMIN
 10
0.0
 20
0.0
 30
0.0
  9
$EXTMAX
 10
420.0
 20
297.0
 30
0.0
  9
$LIMMIN
 10
0.0
 20
0.0
  9
$LIMMAX
 10
420.0
 20
297.0
  9
$LTSCALE
 40
1.0
  9
$PDMODE
 70
     0
  0
ENDSEC
  0
SECTION
  2
TABLES
  0
TABLE
  2
LTYPE
 70
     5
  0
LTYPE
  2
CONTINUOUS
 70
    64
  3
Solid line
 72
    65
 73
     0
 40
0.0
  0
LTYPE
  2
LTYPE1
 70
    64
  3
HIDDEN
 72
    65
 73
     2
 40
2.0
 49
1.2
 49
-0.8
  0
LTYPE
  2
LTYPE2
 70
    64
  3
PHANTOM
 72
    65
 73
     6
 40
10.0
 49
7.5
 49
-0.5
 49
0.5
 49
-0.5
 49
0.5
 49
-0.5
  0
LTYPE
  2
LTYPE3
 70
    64
  3
CENTER
 72
    65
 73
     4
 40
10.0
 49
7.0
 49
-1.0
 49
1.0
 49
-1.0
  0
LTYPE
  2
LTYPE4
 70
    64
  3
CENTER
 72
    65
 73
     4
 40
8.0
 49
5.6
 49
-0.8
 49
0.8
 49
-0.8
  0
ENDTAB
  0
TABLE
  2
LAYER
 70
   128
  0
LAYER
  2
0
 70
     0
 62
     7
  6
CONTINUOUS
  0
LAYER
  2
2
 70
     0
 62
     7
  6
CONTINUOUS
  0
LAYER
  2
3
 70
     0
 62
     7
  6
CONTINUOUS
  0
LAYER
  2
4
 70
     0
 62
     7
  6
CONTINUOUS
  0
LAYER
  2
5
 70
     0
 62
     7
  6
CONTINUOUS
  0
LAYER
  2
6
 70
     0
 62
     7
  6
CONTINUOUS
  0
LAYER
  2
7
 70
     0
 62
     7
  6
CONTINUOUS
  0
LAYER
  2
8
 70
     0
 62
     7
  6
CONTINUOUS
  0
LAYER
  2
9
 70
     0
 62
     7
  6
CONTINUOUS
  0
LAYER
  2
10
 70
     0
 62
     7
  6
CONTINUOUS
  0
LAYER
  2
11
 70
     0
 62
     7
  6
CONTINUOUS
  0
LAYER
  2
12
 70
     0
 62
     7
  6
CONTINUOUS
  0
LAYER
  2
13
 70
     0
 62
     7
  6
CONTINUOUS
  0
LAYER
  2
14
 70
     0
 62
     7
  6
CONTINUOUS
  0
LAYER
  2
15
 70
     0
 62
     7
  6
CONTINUOUS
  0
LAYER
  2
16
 70
     0
 62
     7
  6
CONTINUOUS
  0
LAYER
  2
17
 70
     0
 62
     7
  6
CONTINUOUS
  0
LAYER
  2
18
 70
     0
 62
     7
  6
CONTINUOUS
  0
LAYER
  2
19
 70
     0
 62
     7
  6
CONTINUOUS
  0
LAYER
  2
20
 70
     0
 62
     7
  6
CONTINUOUS
  0
LAYER
  2
21
 70
     0
 62
     7
  6
CONTINUOUS
  0
LAYER
  2
22
 70
     0
 62
     7
  6
CONTINUOUS
  0
LAYER
  2
23
 70
     0
 62
     7
  6
CONTINUOUS
  0
LAYER
  2
24
 70
     0
 62
     7
  6
CONTINUOUS
  0
LAYER
  2
25
 70
     0
 62
     7
  6
CONTINUOUS
  0
LAYER
  2
26
 70
     0
 62
     7
  6
CONTINUOUS
  0
LAYER
  2
27
 70
     0
 62
     7
  6
CONTINUOUS
  0
LAYER
  2
28
 70
     0
 62
     7
  6
CONTINUOUS
  0
LAYER
  2
29
 70
     0
 62
     7
  6
CONTINUOUS
  0
LAYER
  2
30
 70
     0
 62
     7
  6
CONTINUOUS
  0
LAYER
  2
31
 70
     0
 62
     7
  6
CONTINUOUS
  0
LAYER
  2
32
 70
     0
 62
     7
  6
CONTINUOUS
  0
LAYER
  2
33
 70
     0
 62
     7
  6
CONTINUOUS
  0
LAYER
  2
34
 70
     0
 62
     7
  6
CONTINUOUS
  0
LAYER
  2
35
 70
     0
 62
     7
  6
CONTINUOUS
  0
LAYER
  2
36
 70
     0
 62
     7
  6
CONTINUOUS
  0
LAYER
  2
37
 70
     0
 62
     7
  6
CONTINUOUS
  0
LAYER
  2
38
 70
     0
 62
     7
  6
CONTINUOUS
  0
LAYER
  2
39
 70
     0
 62
     7
  6
CONTINUOUS
  0
LAYER
  2
40
 70
     0
 62
     7
  6
CONTINUOUS
  0
LAYER
  2
41
 70
     0
 62
     7
  6
CONTINUOUS
  0
LAYER
  2
42
 70
     0
 62
     7
  6
CONTINUOUS
  0
LAYER
  2
43
 70
     0
 62
     7
  6
CONTINUOUS
  0
LAYER
  2
44
 70
     0
 62
     7
  6
CONTINUOUS
  0
LAYER
  2
45
 70
     0
 62
     7
  6
CONTINUOUS
  0
LAYER
  2
46
 70
     0
 62
     7
  6
CONTINUOUS
  0
LAYER
  2
47
 70
     0
 62
     7
  6
CONTINUOUS
  0
LAYER
  2
48
 70
     0
 62
     7
  6
CONTINUOUS
  0
LAYER
  2
49
 70
     0
 62
     7
  6
CONTINUOUS
  0
LAYER
  2
50
 70
     0
 62
     7
  6
CONTINUOUS
  0
LAYER
  2
51
 70
     0
 62
     7
  6
CONTINUOUS
  0
LAYER
  2
52
 70
     0
 62
     7
  6
CONTINUOUS
  0
LAYER
  2
53
 70
     0
 62
     7
  6
CONTINUOUS
  0
LAYER
  2
54
 70
     0
 62
     7
  6
CONTINUOUS
  0
LAYER
  2
55
 70
     0
 62
     7
  6
CONTINUOUS
  0
LAYER
  2
56
 70
     0
 62
     7
  6
CONTINUOUS
  0
LAYER
  2
57
 70
     0
 62
     7
  6
CONTINUOUS
  0
LAYER
  2
58
 70
     0
 62
     7
  6
CONTINUOUS
  0
LAYER
  2
59
 70
     0
 62
     7
  6
CONTINUOUS
  0
LAYER
  2
60
 70
     0
 62
     7
  6
CONTINUOUS
  0
LAYER
  2
61
 70
     0
 62
     7
  6
CONTINUOUS
  0
LAYER
  2
62
 70
     0
 62
     7
  6
CONTINUOUS
  0
LAYER
  2
63
 70
     0
 62
     7
  6
CONTINUOUS
  0
LAYER
  2
64
 70
     0
 62
     7
  6
CONTINUOUS
  0
LAYER
  2
65
 70
     0
 62
     7
  6
CONTINUOUS
  0
LAYER
  2
66
 70
     0
 62
     7
  6
CONTINUOUS
  0
LAYER
  2
67
 70
     0
 62
     7
  6
CONTINUOUS
  0
LAYER
  2
68
 70
     0
 62
     7
  6
CONTINUOUS
  0
LAYER
  2
69
 70
     0
 62
     7
  6
CONTINUOUS
  0
LAYER
  2
70
 70
     0
 62
     7
  6
CONTINUOUS
  0
LAYER
  2
71
 70
     0
 62
     7
  6
CONTINUOUS
  0
LAYER
  2
72
 70
     0
 62
     7
  6
CONTINUOUS
  0
LAYER
  2
73
 70
     0
 62
     7
  6
CONTINUOUS
  0
LAYER
  2
74
 70
     0
 62
     7
  6
CONTINUOUS
  0
LAYER
  2
75
 70
     0
 62
     7
  6
CONTINUOUS
  0
LAYER
  2
76
 70
     0
 62
     7
  6
CONTINUOUS
  0
LAYER
  2
77
 70
     0
 62
     7
  6
CONTINUOUS
  0
LAYER
  2
78
 70
     0
 62
     7
  6
CONTINUOUS
  0
LAYER
  2
79
 70
     0
 62
     7
  6
CONTINUOUS
  0
LAYER
  2
80
 70
     0
 62
     7
  6
CONTINUOUS
  0
LAYER
  2
81
 70
     0
 62
     7
  6
CONTINUOUS
  0
LAYER
  2
82
 70
     0
 62
     7
  6
CONTINUOUS
  0
LAYER
  2
83
 70
     0
 62
     7
  6
CONTINUOUS
  0
LAYER
  2
84
 70
     0
 62
     7
  6
CONTINUOUS
  0
LAYER
  2
85
 70
     0
 62
     7
  6
CONTINUOUS
  0
LAYER
  2
86
 70
     0
 62
     7
  6
CONTINUOUS
  0
LAYER
  2
87
 70
     0
 62
     7
  6
CONTINUOUS
  0
LAYER
  2
88
 70
     0
 62
     7
  6
CONTINUOUS
  0
LAYER
  2
89
 70
     0
 62
     7
  6
CONTINUOUS
  0
LAYER
  2
90
 70
     0
 62
     7
  6
CONTINUOUS
  0
LAYER
  2
91
 70
     0
 62
     7
  6
CONTINUOUS
  0
LAYER
  2
92
 70
     0
 62
     7
  6
CONTINUOUS
  0
LAYER
  2
93
 70
     0
 62
     7
  6
CONTINUOUS
  0
LAYER
  2
94
 70
     0
 62
     7
  6
CONTINUOUS
  0
LAYER
  2
95
 70
     0
 62
     7
  6
CONTINUOUS
  0
LAYER
  2
96
 70
     0
 62
     7
  6
CONTINUOUS
  0
LAYER
  2
97
 70
     0
 62
     7
  6
CONTINUOUS
  0
LAYER
  2
98
 70
     0
 62
     7
  6
CONTINUOUS
  0
LAYER
  2
99
 70
     0
 62
     7
  6
CONTINUOUS
  0
LAYER
  2
100
 70
     0
 62
     7
  6
CONTINUOUS
  0
LAYER
  2
101
 70
     0
 62
     7
  6
CONTINUOUS
  0
LAYER
  2
102
 70
     0
 62
     7
  6
CONTINUOUS
  0
LAYER
  2
103
 70
     0
 62
     7
  6
CONTINUOUS
  0
LAYER
  2
104
 70
     0
 62
     7
  6
CONTINUOUS
  0
LAYER
  2
105
 70
     0
 62
     7
  6
CONTINUOUS
  0
LAYER
  2
106
 70
     0
 62
     7
  6
CONTINUOUS
  0
LAYER
  2
107
 70
     0
 62
     7
  6
CONTINUOUS
  0
LAYER
  2
108
 70
     0
 62
     7
  6
CONTINUOUS
  0
LAYER
  2
109
 70
     0
 62
     7
  6
CONTINUOUS
  0
LAYER
  2
110
 70
     0
 62
     7
  6
CONTINUOUS
  0
LAYER
  2
111
 70
     0
 62
     7
  6
CONTINUOUS
  0
LAYER
  2
112
 70
     0
 62
     7
  6
CONTINUOUS
  0
LAYER
  2
113
 70
     0
 62
     7
  6
CONTINUOUS
  0
LAYER
  2
114
 70
     0
 62
     7
  6
CONTINUOUS
  0
LAYER
  2
115
 70
     0
 62
     7
  6
CONTINUOUS
  0
LAYER
  2
116
 70
     0
 62
     7
  6
CONTINUOUS
  0
LAYER
  2
117
 70
     0
 62
     7
  6
CONTINUOUS
  0
LAYER
  2
118
 70
     0
 62
     7
  6
CONTINUOUS
  0
LAYER
  2
119
 70
     0
 62
     7
  6
CONTINUOUS
  0
LAYER
  2
120
 70
     0
 62
     7
  6
CONTINUOUS
  0
LAYER
  2
121
 70
     0
 62
     7
  6
CONTINUOUS
  0
LAYER
  2
122
 70
     0
 62
     7
  6
CONTINUOUS
  0
LAYER
  2
123
 70
     0
 62
     7
  6
CONTINUOUS
  0
LAYER
  2
124
 70
     0
 62
     7
  6
CONTINUOUS
  0
LAYER
  2
125
 70
     0
 62
     7
  6
CONTINUOUS
  0
LAYER
  2
126
 70
     0
 62
     7
  6
CONTINUOUS
  0
LAYER
  2
127
 70
     0
 62
     7
  6
CONTINUOUS
  0
LAYER
  2
128
 70
     0
 62
     7
  6
CONTINUOUS
  0
ENDTAB
  0
TABLE
  2
STYLE
 70
    15
  0
STYLE
  2
STANDARD
 70
     0
 40
0.0
 41
1.0
 50
0.0
 71
     0
 42
0.2
  3
txt
  4

  0
STYLE
  2
KANJI0
 70
     0
 40
5.0
 41
1.0
 50
0.0
 71
     0
 42
5.0
  3

  4
bigfont
  0
STYLE
  2
KANJI1
 70
     0
 40
5.0
 41
1.2
 50
0.0
 71
     0
 42
5.0
  3

  4
bigfont
  0
STYLE
  2
KANJI2
 70
     0
 40
3.0
 41
0.666666667
 50
0.0
 71
     0
 42
3.0
  3

  4
bigfont
  0
STYLE
  2
KANJI3
 70
     0
 40
3.0
 41
1.0
 50
0.0
 71
     0
 42
3.0
  3

  4
bigfont
  0
STYLE
  2
KANJI4
 70
     0
 40
4.0
 41
0.875
 50
0.0
 71
     0
 42
4.0
  3

  4
bigfont
  0
STYLE
  2
KANJI5
 70
     0
 40
2.5
 41
1.0
 50
0.0
 71
     0
 42
2.5
  3

  4
bigfont
  0
STYLE
  2
KANJI6
 70
     0
 40
2.5
 41
1.0
 50
0.0
 71
     0
 42
2.5
  3

  4
bigfont
  0
STYLE
  2
KANJI7
 70
     0
 40
2.5
 41
1.0
 50
0.0
 71
     0
 42
2.5
  3

  4
bigfont
  0
STYLE
  2
KANJI8
 70
     0
 40
4.0
 41
1.125
 50
0.0
 71
     0
 42
4.0
  3

  4
bigfont
  0
STYLE
  2
KANJI9
 70
     0
 40
7.0
 41
0.857142857
 50
0.0
 71
     0
 42
7.0
  3

  4
bigfont
  0
STYLE
  2
KANJI10
 70
     0
 40
3.0
 41
0.666666667
 50
0.0
 71
     0
 42
3.0
  3

  4
bigfont
  0
STYLE
  2
KANJI11
 70
     0
 40
3.0
 41
0.833333333
 50
0.0
 71
     0
 42
3.0
  3

  4
bigfont
  0
STYLE
  2
KANJI12
 70
     0
 40
3.0
 41
0.833333333
 50
0.0
 71
     0
 42
3.0
  3

  4
bigfont
  0
STYLE
  2
KANJI13
 70
     0
 40
3.5
 41
0.857142857
 50
0.0
 71
     0
 42
3.5
  3

  4
bigfont
  0
ENDTAB
  0
TABLE
  2
VIEW
 70
     0
  0
ENDTAB
  0
ENDSEC
  0
SECTION
  2
BLOCKS
  0
ENDSEC
  0
SECTION
  2
ENTITIES
  0
CIRCLE
  8
0
  6
CONTINUOUS
 62
     1
 10
327.492749892
 20
196.1
 40
45.0
  0
LINE
  8
0
  6
CONTINUOUS
 62
     1
 10
285.092749892
 20
181.1
 11
255.092749892
 21
181.1
  0
LINE
  8
0
  6
CONTINUOUS
 62
     1
 10
255.092749892
 20
181.1
 11
255.092749892
 21
211.1
  0
LINE
  8
0
  6
CONTINUOUS
 62
     1
 10
255.092749892
 20
211.1
 11
285.092749892
 21
211.1
  0
LINE
  8
0
  6
CONTINUOUS
 62
     1
 10
275.592749892
 20
168.6
 11
259.592749892
 21
168.6
  0
LINE
  8
0
  6
CONTINUOUS
 62
     1
 10
278.092749892
 20
179.6
 11
257.092749892
 21
179.6
  0
LINE
  8
0
  6
CONTINUOUS
 62
     1
 10
278.092749892
 20
181.1
 11
257.092749892
 21
181.1
  0
LINE
  8
0
  6
CONTINUOUS
 62
     1
 10
257.092749892
 20
179.6
 11
257.092749892
 21
181.1
  0
LINE
  8
0
  6
CONTINUOUS
 62
     1
 10
278.092749892
 20
179.6
 11
278.092749892
 21
181.1
  0
ARC
  8
0
  6
CONTINUOUS
 62
     1
 10
275.592749892
 20
179.7025
 40
2.1025
 50
182.794362055
 51
357.205637945
  0
ARC
  8
0
  6
CONTINUOUS
 62
     1
 10
259.592749892
 20
179.7025
 40
2.1025
 50
182.794362055
 51
357.205637945
  0
LINE
  8
0
  6
CONTINUOUS
 62
     1
 10
275.592749892
 20
168.6
 11
275.592749892
 21
177.6
  0
LINE
  8
0
  6
CONTINUOUS
 62
     1
 10
259.592749892
 20
168.6
 11
259.592749892
 21
177.6
  0
ARC
  8
0
  6
CONTINUOUS
 62
     1
 10
327.492749892
 20
196.1
 40
13.0
 50
66.181158607
 51
113.818841393
  0
LINE
  8
0
  6
CONTINUOUS
 62
     1
 10
334.492749892
 20
202.559537522
 11
334.492749892
 21
189.640462478
  0
LINE
  8
0
  6
CONTINUOUS
 62
     1
 10
320.492749892
 20
202.559537522
 11
320.492749892
 21
189.640462478
  0
ARC
  8
0
  6
CONTINUOUS
 62
     1
 10
327.492749892
 20
196.1
 40
9.525
 50
123.448079313
 51
137.299454328
  0
ARC
  8
0
  6
CONTINUOUS
 62
     1
 10
327.492749892
 20
196.1
 40
9.525
 50
42.700545672
 51
56.551920687
  0
ARC
  8
0
  6
CONTINUOUS
 62
     1
 10
327.492749892
 20
196.1
 40
9.525
 50
303.448079313
 51
317.299454328
  0
ARC
  8
0
  6
CONTINUOUS
 62
     1
 10
327.492749892
 20
196.1
 40
9.525
 50
222.700545672
 51
236.551920687
  0
ARC
  8
0
  6
CONTINUOUS
 62
     1
 10
327.492749892
 20
196.1
 40
13.0
 50
246.181158607
 51
293.818841393
  0
LINE
  8
0
  6
CONTINUOUS
 62
     1
 10
322.242749892
 20
207.992749892
 11
322.242749892
 21
184.207250108
  0
LINE
  8
0
  6
CONTINUOUS
 62
     1
 10
332.742749892
 20
207.992749892
 11
332.742749892
 21
184.207250108
  0
ARC
  8
0
  6
CONTINUOUS
 62
     1
 10
327.492749892
 20
196.1
 40
7.5
 50
158.960530219
 51
201.039469781
  0
ARC
  8
0
  6
CONTINUOUS
 62
     1
 10
327.492749892
 20
196.1
 40
7.5
 50
338.960530219
 51
21.039469781
  0
ARC
  8
0
  6
CONTINUOUS
 62
     1
 10
327.492749892
 20
196.1
 40
9.5
 50
123.448079313
 51
236.551920687
  0
ARC
  8
0
  6
CONTINUOUS
 62
     1
 10
327.492749892
 20
196.1
 40
9.5
 50
303.448079313
 51
56.551920687
  0
ARC
  8
0
  6
CONTINUOUS
 62
     1
 10
327.492749892
 20
196.1
 40
10.0
 50
121.668243254
 51
238.331756746
  0
ARC
  8
0
  6
CONTINUOUS
 62
     1
 10
327.492749892
 20
196.1
 40
10.0
 50
301.668243254
 51
58.331756746
  0
ARC
  8
0
  6
CONTINUOUS
 62
     1
 10
327.492749892
 20
196.1
 40
12.0
 50
115.944479772
 51
244.055520228
  0
ARC
  8
0
  6
CONTINUOUS
 62
     1
 10
327.492749892
 20
196.1
 40
12.0
 50
295.944479772
 51
64.055520228
  0
LINE
  8
0
  6
CONTINUOUS
 62
     1
 10
317.092749892
 20
196.1
 11
317.520147153
 21
195.360273973
  0
LINE
  8
0
  6
CONTINUOUS
 62
     1
 10
317.520147153
 20
196.839726027
 11
317.092749892
 21
196.1
  0
LINE
  8
0
  6
CONTINUOUS
 62
     1
 10
337.892749892
 20
196.1
 11
337.465352632
 21
196.839726027
  0
LINE
  8
0
  6
CONTINUOUS
 62
     1
 10
337.465352632
 20
195.360273973
 11
337.892749892
 21
196.1
  0
CIRCLE
  8
0
  6
CONTINUOUS
 62
     2
 10
327.492749892
 20
166.1
 40
3.0
  0
CIRCLE
  8
0
  6
CONTINUOUS
 62
     1
 10
327.492749892
 20
166.1
 40
2.5
  0
CIRCLE
  8
0
  6
CONTINUOUS
 62
     2
 10
348.705953328
 20
174.886796564
 40
3.0
  0
CIRCLE
  8
0
  6
CONTINUOUS
 62
     1
 10
348.705953328
 20
174.886796564
 40
2.5
  0
CIRCLE
  8
0
  6
CONTINUOUS
 62
     2
 10
306.279546457
 20
174.886796564
 40
3.0
  0
CIRCLE
  8
0
  6
CONTINUOUS
 62
     1
 10
306.279546457
 20
174.886796564
 40
2.5
  0
CIRCLE
  8
0
  6
CONTINUOUS
 62
     2
 10
327.492749892
 20
226.1
 40
3.0
  0
CIRCLE
  8
0
  6
CONTINUOUS
 62
     1
 10
327.492749892
 20
226.1
 40
2.5
  0
CIRCLE
  8
0
  6
CONTINUOUS
 62
     2
 10
306.279546457
 20
217.313203436
 40
3.0
  0
CIRCLE
  8
0
  6
CONTINUOUS
 62
     1
 10
306.279546457
 20
217.313203436
 40
2.5
  0
CIRCLE
  8
0
  6
CONTINUOUS
 62
     2
 10
348.705953328
 20
217.313203436
 40
3.0
  0
CIRCLE
  8
0
  6
CONTINUOUS
 62
     1
 10
348.705953328
 20
217.313203436
 40
2.5
  0
CIRCLE
  8
0
  6
CONTINUOUS
 62
     2
 10
327.492749892
 20
196.1
 40
24.5
  0
CIRCLE
  8
0
  6
CONTINUOUS
 62
     1
 10
327.492749892
 20
196.1
 40
25.0
  0
LINE
  8
7
  6
CONTINUOUS
 62
     2
 10
410.0
 20
198.5
 11
415.0
 21
198.5
  0
LINE
  8
7
  6
CONTINUOUS
 62
     2
 10
410.0
 20
248.5
 11
415.0
 21
248.5
  0
LINE
  8
7
  6
CONTINUOUS
 62
     2
 10
410.0
 20
98.5
 11
415.0
 21
98.5
  0
LINE
  8
7
  6
CONTINUOUS
 62
     2
 10
410.0
 20
48.5
 11
415.0
 21
48.5
  0
LINE
  8
7
  6
CONTINUOUS
 62
     2
 10
410.0
 20
75.0
 11
407.5
 21
75.0
  0
LINE
  8
7
  6
CONTINUOUS
 62
     2
 10
410.0
 20
83.0
 11
407.5
 21
83.0
  0
LINE
  8
7
  6
CONTINUOUS
 62
     2
 10
410.0
 20
91.0
 11
407.5
 21
91.0
  0
TEXT
  8
7
  6
CONTINUOUS
 62
     6
 10
411.5
 20
271.0
 30
0.0
 40
5.0
  1
Ａ
 50
0.0
 41
1.0
 51
0.0
  7
KANJI0
  0
TEXT
  8
7
  6
CONTINUOUS
 62
     6
 10
411.5
 20
221.0
 30
0.0
 40
5.0
  1
Ｂ
 50
0.0
 41
1.0
 51
0.0
  7
KANJI0
  0
TEXT
  8
7
  6
CONTINUOUS
 62
     6
 10
411.5
 20
171.0
 30
0.0
 40
5.0
  1
Ｃ
 50
0.0
 41
1.0
 51
0.0
  7
KANJI0
  0
TEXT
  8
7
  6
CONTINUOUS
 62
     6
 10
411.5
 20
121.0
 30
0.0
 40
5.0
  1
Ｄ
 50
0.0
 41
1.0
 51
0.0
  7
KANJI0
  0
TEXT
  8
7
  6
CONTINUOUS
 62
     6
 10
411.5
 20
71.0
 30
0.0
 40
5.0
  1
Ｅ
 50
0.0
 41
1.0
 51
0.0
  7
KANJI0
  0
TEXT
  8
7
  6
CONTINUOUS
 62
     6
 10
411.5
 20
21.0
 30
0.0
 40
5.0
  1
Ｆ
 50
0.0
 41
1.0
 51
0.0
  7
KANJI0
  0
LINE
  8
7
  6
CONTINUOUS
 62
     2
 10
25.0
 20
198.5
 11
20.0
 21
198.5
  0
LINE
  8
7
  6
CONTINUOUS
 62
     2
 10
25.0
 20
248.5
 11
20.0
 21
248.5
  0
LINE
  8
7
  6
CONTINUOUS
 62
     2
 10
25.0
 20
98.5
 11
20.0
 21
98.5
  0
LINE
  8
7
  6
CONTINUOUS
 62
     2
 10
25.0
 20
48.5
 11
20.0
 21
48.5
  0
TEXT
  8
7
  6
CONTINUOUS
 62
     6
 10
18.5
 20
271.0
 30
0.0
 40
5.0
  1
Ａ
 50
0.0
 41
1.0
 51
0.0
  7
KANJI0
  0
TEXT
  8
7
  6
CONTINUOUS
 62
     6
 10
18.5
 20
221.0
 30
0.0
 40
5.0
  1
Ｂ
 50
0.0
 41
1.0
 51
0.0
  7
KANJI0
  0
TEXT
  8
7
  6
CONTINUOUS
 62
     6
 10
18.5
 20
171.0
 30
0.0
 40
5.0
  1
Ｃ
 50
0.0
 41
1.0
 51
0.0
  7
KANJI0
  0
TEXT
  8
7
  6
CONTINUOUS
 62
     6
 10
18.5
 20
121.0
 30
0.0
 40
5.0
  1
Ｄ
 50
0.0
 41
1.0
 51
0.0
  7
KANJI0
  0
TEXT
  8
7
  6
CONTINUOUS
 62
     6
 10
18.5
 20
71.0
 30
0.0
 40
5.0
  1
Ｅ
 50
0.0
 41
1.0
 51
0.0
  7
KANJI0
  0
TEXT
  8
7
  6
CONTINUOUS
 62
     6
 10
18.5
 20
21.0
 30
0.0
 40
5.0
  1
Ｆ
 50
0.0
 41
1.0
 51
0.0
  7
KANJI0
  0
LINE
  8
7
  6
CONTINUOUS
 62
     2
 10
160.0
 20
287.0
 11
160.0
 21
292.0
  0
LINE
  8
7
  6
CONTINUOUS
 62
     2
 10
110.0
 20
292.0
 11
110.0
 21
287.0
  0
LINE
  8
7
  6
CONTINUOUS
 62
     2
 10
60.0
 20
292.0
 11
60.0
 21
287.0
  0
LINE
  8
7
  6
CONTINUOUS
 62
     2
 10
260.0
 20
292.0
 11
260.0
 21
287.0
  0
LINE
  8
7
  6
CONTINUOUS
 62
     2
 10
310.0
 20
292.0
 11
310.0
 21
287.0
  0
TEXT
  8
7
  6
CONTINUOUS
 62
     6
 10
32.0
 20
288.5
 30
0.0
 40
5.0
  1
１
 50
0.0
 41
1.2
 51
0.0
  7
KANJI1
  0
TEXT
  8
7
  6
CONTINUOUS
 62
     6
 10
82.0
 20
288.5
 30
0.0
 40
5.0
  1
２
 50
0.0
 41
1.2
 51
0.0
  7
KANJI1
  0
TEXT
  8
7
  6
CONTINUOUS
 62
     6
 10
132.0
 20
288.5
 30
0.0
 40
5.0
  1
３
 50
0.0
 41
1.2
 51
0.0
  7
KANJI1
  0
TEXT
  8
7
  6
CONTINUOUS
 62
     6
 10
182.0
 20
288.5
 30
0.0
 40
5.0
  1
４
 50
0.0
 41
1.2
 51
0.0
  7
KANJI1
  0
TEXT
  8
7
  6
CONTINUOUS
 62
     6
 10
232.0
 20
288.5
 30
0.0
 40
5.0
  1
５
 50
0.0
 41
1.2
 51
0.0
  7
KANJI1
  0
TEXT
  8
7
  6
CONTINUOUS
 62
     6
 10
282.0
 20
288.5
 30
0.0
 40
5.0
  1
６
 50
0.0
 41
1.2
 51
0.0
  7
KANJI1
  0
TEXT
  8
7
  6
CONTINUOUS
 62
     6
 10
332.0
 20
288.5
 30
0.0
 40
5.0
  1
７
 50
0.0
 41
1.2
 51
0.0
  7
KANJI1
  0
TEXT
  8
7
  6
CONTINUOUS
 62
     6
 10
382.0
 20
288.5
 30
0.0
 40
5.0
  1
８
 50
0.0
 41
1.2
 51
0.0
  7
KANJI1
  0
LINE
  8
7
  6
CONTINUOUS
 62
     2
 10
110.0
 20
5.0
 11
110.0
 21
10.0
  0
LINE
  8
7
  6
CONTINUOUS
 62
     2
 10
60.0
 20
5.0
 11
60.0
 21
10.0
  0
TEXT
  8
7
  6
CONTINUOUS
 62
     6
 10
32.0
 20
3.5
 30
0.0
 40
5.0
  1
１
 50
0.0
 41
1.2
 51
0.0
  7
KANJI1
  0
TEXT
  8
7
  6
CONTINUOUS
 62
     6
 10
82.0
 20
3.5
 30
0.0
 40
5.0
  1
２
 50
0.0
 41
1.2
 51
0.0
  7
KANJI1
  0
TEXT
  8
7
  6
CONTINUOUS
 62
     6
 10
132.0
 20
3.5
 30
0.0
 40
5.0
  1
３
 50
0.0
 41
1.2
 51
0.0
  7
KANJI1
  0
TEXT
  8
7
  6
CONTINUOUS
 62
     6
 10
282.0
 20
3.5
 30
0.0
 40
5.0
  1
６
 50
0.0
 41
1.2
 51
0.0
  7
KANJI1
  0
TEXT
  8
7
  6
CONTINUOUS
 62
     6
 10
332.0
 20
3.5
 30
0.0
 40
5.0
  1
７
 50
0.0
 41
1.2
 51
0.0
  7
KANJI1
  0
TEXT
  8
7
  6
CONTINUOUS
 62
     6
 10
382.0
 20
3.5
 30
0.0
 40
5.0
  1
８
 50
0.0
 41
1.2
 51
0.0
  7
KANJI1
  0
LINE
  8
7
  6
CONTINUOUS
 62
     2
 10
360.0
 20
287.0
 11
360.0
 21
292.0
  0
LINE
  8
7
  6
CONTINUOUS
 62
     6
 10
25.0
 20
287.0
 11
25.0
 21
10.0
  0
LINE
  8
7
  6
CONTINUOUS
 62
     6
 10
210.0
 20
10.0
 11
210.0
 21
0.0
  0
LINE
  8
7
  6
CONTINUOUS
 62
     6
 10
160.0
 20
10.0
 11
160.0
 21
5.0
  0
LINE
  8
7
  6
CONTINUOUS
 62
     6
 10
170.0
 20
10.0
 11
170.0
 21
5.0
  0
LINE
  8
7
  6
CONTINUOUS
 62
     6
 10
180.0
 20
10.0
 11
180.0
 21
5.0
  0
LINE
  8
7
  6
CONTINUOUS
 62
     6
 10
190.0
 20
10.0
 11
190.0
 21
5.0
  0
LINE
  8
7
  6
CONTINUOUS
 62
     6
 10
200.0
 20
10.0
 11
200.0
 21
5.0
  0
LINE
  8
7
  6
CONTINUOUS
 62
     6
 10
25.0
 20
10.0
 11
410.0
 21
10.0
  0
LINE
  8
7
  6
CONTINUOUS
 62
     6
 10
260.0
 20
5.0
 11
260.0
 21
10.0
  0
LINE
  8
7
  6
CONTINUOUS
 62
     6
 10
250.0
 20
5.0
 11
250.0
 21
10.0
  0
LINE
  8
7
  6
CONTINUOUS
 62
     6
 10
240.0
 20
5.0
 11
240.0
 21
10.0
  0
LINE
  8
7
  6
CONTINUOUS
 62
     6
 10
230.0
 20
5.0
 11
230.0
 21
10.0
  0
LINE
  8
7
  6
CONTINUOUS
 62
     6
 10
220.0
 20
5.0
 11
220.0
 21
10.0
  0
LINE
  8
7
  6
CONTINUOUS
 62
     6
 10
160.0
 20
5.0
 11
260.0
 21
5.0
  0
LINE
  8
7
  6
LTYPE1
 62
     2
 10
399.5
 20
21.0
 11
399.5
 21
10.0
  0
LINE
  8
7
  6
CONTINUOUS
 62
     2
 10
239.0
 20
67.0
 11
239.0
 21
10.0
  0
LINE
  8
7
  6
CONTINUOUS
 62
     2
 10
246.0
 20
67.0
 11
246.0
 21
10.0
  0
LINE
  8
7
  6
CONTINUOUS
 62
     2
 10
253.0
 20
67.0
 11
253.0
 21
10.0
  0
LINE
  8
7
  6
CONTINUOUS
 62
     2
 10
260.0
 20
67.0
 11
260.0
 21
10.0
  0
LINE
  8
7
  6
CONTINUOUS
 62
     2
 10
273.0
 20
21.0
 11
410.0
 21
21.0
  0
LINE
  8
7
  6
CONTINUOUS
 62
     2
 10
273.0
 20
32.0
 11
410.0
 21
32.0
  0
LINE
  8
7
  6
CONTINUOUS
 62
     2
 10
273.0
 20
43.0
 11
410.0
 21
43.0
  0
LINE
  8
7
  6
CONTINUOUS
 62
     2
 10
321.0
 20
43.0
 11
321.0
 21
21.0
  0
LINE
  8
7
  6
CONTINUOUS
 62
     2
 10
337.0
 20
43.0
 11
337.0
 21
21.0
  0
LINE
  8
7
  6
CONTINUOUS
 62
     2
 10
297.0
 20
43.0
 11
297.0
 21
32.0
  0
LINE
  8
7
  6
CONTINUOUS
 62
     2
 10
267.0
 20
67.0
 11
267.0
 21
10.0
  0
LINE
  8
7
  6
CONTINUOUS
 62
     2
 10
289.0
 20
32.0
 11
289.0
 21
10.0
  0
LINE
  8
7
  6
CONTINUOUS
 62
     2
 10
305.0
 20
32.0
 11
305.0
 21
10.0
  0
LINE
  8
7
  6
CONTINUOUS
 62
     2
 10
353.0
 20
43.0
 11
353.0
 21
10.0
  0
POLYLINE
  8
7
  6
LTYPE2
 62
     2
 66
     1
 70
     1
  0
VERTEX
  8
7
  6
LTYPE2
 62
     2
 10
311.0
 20
13.5
  0
VERTEX
  8
7
  6
LTYPE2
 62
     2
 10
315.0
 20
13.5
  0
VERTEX
  8
7
  6
LTYPE2
 62
     2
 10
315.0
 20
17.5
  0
VERTEX
  8
7
  6
LTYPE2
 62
     2
 10
311.0
 20
17.5
  0
SEQEND
  0
TEXT
  8
7
  6
CONTINUOUS
 62
     4
 10
354.0
 20
47.0
 30
-0.5
 40
3.0
  1
１セット分
 50
0.0
 41
0.666666667
 51
0.0
  7
KANJI2
  0
TEXT
  8
7
  6
CONTINUOUS
 62
     4
 10
343.0
 20
47.0
 30
0.0
 40
3.0
  1
１台分
 50
0.0
 41
1.0
 51
0.0
  7
KANJI3
  0
TEXT
  8
7
  6
CONTINUOUS
 62
     4
 10
345.0
 20
44.0
 30
0.0
 40
3.0
  1
個数
 50
0.0
 41
1.0
 51
0.0
  7
KANJI3
  0
TEXT
  8
7
  6
CONTINUOUS
 62
     4
 10
355.0
 20
44.0
 30
0.0
 40
3.0
  1
個数
 50
0.0
 41
1.0
 51
0.0
  7
KANJI3
  0
TEXT
  8
7
  6
CONTINUOUS
 62
     4
 10
364.5
 20
45.0
 30
0.0
 40
4.0
  1
総数
 50
0.0
 41
0.875
 51
0.0
  7
KANJI4
  0
TEXT
  8
7
  6
CONTINUOUS
 62
     4
 10
271.15
 20
52.5
 30
0.3
 40
2.5
  1
氏名
 50
90.0
 41
1.0
 51
0.0
  7
KANJI5
  0
TEXT
  8
7
  6
CONTINUOUS
 62
     4
 10
271.15
 20
40.425
 30
1.0
 40
2.5
  1
年月日
 50
90.0
 41
1.0
 51
0.0
  7
KANJI6
  0
TEXT
  8
7
  6
CONTINUOUS
 62
     4
 10
271.15
 20
60.375
 30
0.3
 40
2.5
  1
承認
 50
90.0
 41
1.0
 51
0.0
  7
KANJI5
  0
TEXT
  8
7
  6
CONTINUOUS
 62
     4
 10
274.0
 20
39.5
 30
0.0
 40
2.5
  1
熱処理
 50
0.0
 41
1.0
 51
0.0
  7
KANJI7
  0
TEXT
  8
7
  6
CONTINUOUS
 62
     4
 10
298.0
 20
39.5
 30
0.0
 40
2.5
  1
表面処理
 50
0.0
 41
1.0
 51
0.0
  7
KANJI7
  0
TEXT
  8
7
  6
CONTINUOUS
 62
     4
 10
322.0
 20
39.5
 30
0.0
 40
2.5
  1
台数
 50
0.0
 41
1.0
 51
0.0
  7
KANJI7
  0
TEXT
  8
7
  6
CONTINUOUS
 62
     4
 10
338.0
 20
39.5
 30
0.0
 40
2.5
  1
作成日付
 50
0.0
 41
1.0
 51
0.0
  7
KANJI7
  0
TEXT
  8
7
  6
CONTINUOUS
 62
     4
 10
354.0
 20
39.5
 30
0.0
 40
2.5
  1
名称
 50
0.0
 41
1.0
 51
0.0
  7
KANJI7
  0
TEXT
  8
7
  6
CONTINUOUS
 62
     4
 10
274.0
 20
28.5
 30
0.0
 40
2.5
  1
尺度
 50
0.0
 41
1.0
 51
0.0
  7
KANJI7
  0
TEXT
  8
7
  6
CONTINUOUS
 62
     4
 10
290.0
 20
28.5
 30
0.0
 40
2.5
  1
承認
 50
0.0
 41
1.0
 51
0.0
  7
KANJI7
  0
TEXT
  8
7
  6
CONTINUOUS
 62
     4
 10
306.0
 20
28.5
 30
0.0
 40
2.5
  1
検図
 50
0.0
 41
1.0
 51
0.0
  7
KANJI7
  0
TEXT
  8
7
  6
CONTINUOUS
 62
     4
 10
322.0
 20
28.5
 30
0.0
 40
2.5
  1
設計
 50
0.0
 41
1.0
 51
0.0
  7
KANJI7
  0
TEXT
  8
7
  6
CONTINUOUS
 62
     4
 10
338.0
 20
28.5
 30
0.0
 40
2.5
  1
製図
 50
0.0
 41
1.0
 51
0.0
  7
KANJI7
  0
TEXT
  8
7
  6
CONTINUOUS
 62
     4
 10
354.0
 20
28.5
 30
0.0
 40
2.5
  1
機名
 50
0.0
 41
1.0
 51
0.0
  7
KANJI7
  0
TEXT
  8
7
  6
CONTINUOUS
 62
     4
 10
271.15
 20
10.875
 30
0.3
 40
2.5
  1
記号
 50
90.0
 41
1.0
 51
0.0
  7
KANJI5
  0
TEXT
  8
7
  6
CONTINUOUS
 62
     4
 10
354.0
 20
17.5
 30
0.0
 40
2.5
  1
図面番号
 50
0.0
 41
1.0
 51
0.0
  7
KANJI7
  0
TEXT
  8
7
  6
CONTINUOUS
 62
     4
 10
317.0
 20
14.25
 30
0.0
 40
2.5
  1
株式会社
 50
0.0
 41
1.0
 51
0.0
  7
KANJI7
  0
TEXT
  8
7
  6
CONTINUOUS
 62
     4
 10
329.0
 20
13.5
 30
0.0
 40
4.0
  1
昭和測器
 50
0.0
 41
1.125
 51
0.0
  7
KANJI8
  0
TEXT
  8
7
  6
CONTINUOUS
 62
     4
 10
271.15
 20
18.375
 30
0.3
 40
2.5
  1
来歴・改訂記事
 50
90.0
 41
1.0
 51
0.0
  7
KANJI5
  0
TEXT
  8
7
  6
CONTINUOUS
 62
     1
 10
276.0
 20
15.5
 30
0.0
 40
5.0
  1
第３
 50
0.0
 41
1.0
 51
0.0
  7
KANJI0
  0
TEXT
  8
7
  6
CONTINUOUS
 62
     1
 10
276.0
 20
10.5
 30
0.0
 40
5.0
  1
角法
 50
0.0
 41
1.0
 51
0.0
  7
KANJI0
  0
LINE
  8
7
  6
CONTINUOUS
 62
     2
 10
307.0
 20
5.0
 11
307.0
 21
10.0
  0
LINE
  8
7
  6
CONTINUOUS
 62
     2
 10
357.0
 20
5.0
 11
357.0
 21
10.0
  0
LINE
  8
7
  6
CONTINUOUS
 62
     2
 10
232.0
 20
67.0
 11
232.0
 21
10.0
  0
LINE
  8
7
  6
CONTINUOUS
 62
     2
 10
231.0
 20
51.0
 11
410.0
 21
51.0
  0
LINE
  8
7
  6
CONTINUOUS
 62
     2
 10
231.0
 20
17.0
 11
273.0
 21
17.0
  0
TEXT
  8
7
  6
CONTINUOUS
 62
     4
 10
324.0
 20
45.0
 30
0.0
 40
4.0
  1
材　　質
 50
0.0
 41
0.875
 51
0.0
  7
KANJI4
  0
TEXT
  8
7
  6
CONTINUOUS
 62
     4
 10
381.25
 20
45.0
 30
0.0
 40
4.0
  1
摘　　　要
 50
0.0
 41
0.875
 51
0.0
  7
KANJI4
  0
TEXT
  8
7
  6
CONTINUOUS
 62
     4
 10
274.5
 20
45.0
 30
0.0
 40
4.0
  1
番号
 50
0.0
 41
0.875
 51
0.0
  7
KANJI4
  0
TEXT
  8
7
  6
CONTINUOUS
 62
     4
 10
292.25
 20
45.0
 30
0.0
 40
4.0
  1
部　品　名
 50
0.0
 41
0.875
 51
0.0
  7
KANJI4
  0
CIRCLE
  8
7
  6
CONTINUOUS
 62
     6
 10
281.0
 20
26.0
 40
0.2
  0
CIRCLE
  8
7
  6
CONTINUOUS
 62
     6
 10
281.0
 20
23.5
 40
0.2
  0
LINE
  8
7
  6
CONTINUOUS
 62
     6
 10
25.0
 20
148.5
 11
0.0
 21
148.5
  0
LINE
  8
7
  6
CONTINUOUS
 62
     6
 10
210.0
 20
287.0
 11
210.0
 21
297.0
  0
LINE
  8
7
  6
CONTINUOUS
 62
     6
 10
410.0
 20
287.0
 11
25.0
 21
287.0
  0
LINE
  8
7
  6
CONTINUOUS
 62
     6
 10
410.0
 20
148.5
 11
420.0
 21
148.5
  0
LINE
  8
7
  6
CONTINUOUS
 62
     6
 10
410.0
 20
10.0
 11
410.0
 21
287.0
  0
TEXT
  8
6
  6
CONTINUOUS
 62
     5
 10
282.5
 20
23.0
 30
0.0
 40
4.0
  1
１
 50
0.0
 41
0.875
 51
0.0
  7
KANJI4
  0
TEXT
  8
6
  6
CONTINUOUS
 62
     5
 10
276.0
 20
23.0
 30
0.0
 40
4.0
  1
１
 50
0.0
 41
0.875
 51
0.0
  7
KANJI4
  0
TEXT
  8
6
  6
CONTINUOUS
 62
     5
 10
374.0
 20
34.0
 30
0.0
 40
4.0
  1
外観図
 50
0.0
 41
0.875
 51
0.0
  7
KANJI4
  0
TEXT
  8
6
  6
CONTINUOUS
 62
     5
 10
341.0
 20
23.0
 30
0.0
 40
4.0
  1
益子
 50
0.0
 41
0.875
 51
0.0
  7
KANJI4
  0
TEXT
  8
7
  6
CONTINUOUS
 62
     6
 10
291.725
 20
12.025
 30
-1.0
 40
7.0
  1
Ａ３
 50
0.0
 41
0.857142857
 51
0.0
  7
KANJI9
  0
LINE
  8
7
  6
CONTINUOUS
 62
     2
 10
273.0
 20
67.0
 11
410.0
 21
67.0
  0
LINE
  8
7
  6
CONTINUOUS
 62
     2
 10
231.0
 20
67.0
 11
273.0
 21
67.0
  0
LINE
  8
7
  6
CONTINUOUS
 62
     2
 10
273.0
 20
59.0
 11
410.0
 21
59.0
  0
LINE
  8
7
  6
CONTINUOUS
 62
     2
 10
231.0
 20
59.0
 11
273.0
 21
59.0
  0
LINE
  8
7
  6
CONTINUOUS
 62
     2
 10
283.0
 20
51.0
 11
283.0
 21
43.0
  0
LINE
  8
7
  6
CONTINUOUS
 62
     2
 10
283.0
 20
67.0
 11
283.0
 21
51.0
  0
LINE
  8
7
  6
CONTINUOUS
 62
     2
 10
319.0
 20
51.0
 11
319.0
 21
43.0
  0
LINE
  8
7
  6
CONTINUOUS
 62
     2
 10
319.0
 20
67.0
 11
319.0
 21
51.0
  0
LINE
  8
7
  6
CONTINUOUS
 62
     2
 10
343.0
 20
51.0
 11
343.0
 21
43.0
  0
LINE
  8
7
  6
CONTINUOUS
 62
     2
 10
343.0
 20
67.0
 11
343.0
 21
51.0
  0
LINE
  8
7
  6
CONTINUOUS
 62
     2
 10
353.0
 20
51.0
 11
353.0
 21
43.0
  0
LINE
  8
7
  6
CONTINUOUS
 62
     2
 10
353.0
 20
67.0
 11
353.0
 21
51.0
  0
LINE
  8
7
  6
CONTINUOUS
 62
     2
 10
363.0
 20
51.0
 11
363.0
 21
43.0
  0
LINE
  8
7
  6
CONTINUOUS
 62
     2
 10
363.0
 20
67.0
 11
363.0
 21
51.0
  0
LINE
  8
7
  6
CONTINUOUS
 62
     2
 10
373.0
 20
51.0
 11
373.0
 21
43.0
  0
LINE
  8
7
  6
CONTINUOUS
 62
     2
 10
373.0
 20
67.0
 11
373.0
 21
51.0
  0
LINE
  8
7
  6
CONTINUOUS
 62
     2
 10
273.0
 20
51.0
 11
273.0
 21
10.0
  0
LINE
  8
7
  6
CONTINUOUS
 62
     2
 10
273.0
 20
67.0
 11
273.0
 21
51.0
  0
LINE
  8
7
  6
CONTINUOUS
 62
     2
 10
231.0
 20
39.0
 11
273.0
 21
39.0
  0
TEXT
  8
6
  6
CONTINUOUS
 62
     5
 10
263.5
 20
40.5
 30
0.0
 40
3.0
  1
２００８．
 50
90.0
 41
0.666666667
 51
0.0
  7
KANJI10
  0
TEXT
  8
6
  6
CONTINUOUS
 62
     5
 10
263.5
 20
18.0
 30
0.0
 40
3.0
  1
来歴
 50
90.0
 41
0.833333333
 51
0.0
  7
KANJI11
  0
TEXT
  8
6
  6
CONTINUOUS
 62
     5
 10
266.5
 20
18.5
 30
0.0
 40
3.0
  1
Ｆ－０００６－Ａ００１
 50
90.0
 41
0.666666667
 51
0.0
  7
KANJI10
  0
TEXT
  8
6
  6
CONTINUOUS
 62
     5
 10
338.5
 20
36.0
 30
-0.5
 40
3.0
  1
２００８．
 50
0.0
 41
0.833333333
 51
0.0
  7
KANJI12
  0
TEXT
  8
6
  6
CONTINUOUS
 62
     5
 10
359.0
 20
12.0
 30
0.0
 40
4.0
  1
Ｆ－０００６－Ａ００３
 50
0.0
 41
0.875
 51
0.0
  7
KANJI4
  0
TEXT
  8
6
  6
CONTINUOUS
 62
     5
 10
369.0
 20
23.0
 30
0.0
 40
4.0
  1
ＲＴＢ－□Ｎ
 50
0.0
 41
0.875
 51
0.0
  7
KANJI4
  0
LINE
  8
5
  6
CONTINUOUS
 62
     2
 10
327.492749892
 20
251.109090158
 11
325.56089824
 21
251.626728248
  0
LINE
  8
5
  6
CONTINUOUS
 62
     2
 10
327.492749892
 20
251.109090158
 11
325.56089824
 21
250.591452068
  0
ARC
  8
5
  6
CONTINUOUS
 62
     2
 10
327.492749892
 20
196.1
 40
55.009090158
 50
90.0
 51
135.0
  0
TEXT
  8
5
  6
CONTINUOUS
 62
     5
 10
301.901541131
 20
246.123576586
 30
0.0
 40
3.5
  1
４５゜
 50
22.5
 41
0.857142857
 51
0.0
  7
KANJI13
  0
LINE
  8
5
  6
CONTINUOUS
 62
     2
 10
327.492749892
 20
247.1
 11
327.492749892
 21
252.109090158
  0
ARC
  8
5
  6
CONTINUOUS
 62
     2
 10
327.492749892
 20
196.1
 40
55.009090158
 50
45.0
 51
90.0
  0
LINE
  8
5
  6
CONTINUOUS
 62
     2
 10
327.492749892
 20
251.109090158
 11
329.424601545
 21
250.591452068
  0
LINE
  8
5
  6
CONTINUOUS
 62
     2
 10
327.492749892
 20
251.109090158
 11
329.424601545
 21
251.626728248
  0
TEXT
  8
5
  6
CONTINUOUS
 62
     5
 10
344.769042861
 20
249.567727477
 30
0.0
 40
3.5
  1
４５゜
 50
337.5
 41
0.857142857
 51
0.0
  7
KANJI13
  0
LINE
  8
5
  6
CONTINUOUS
 62
     2
 10
327.492749892
 20
241.1
 11
327.492749892
 21
252.109090158
  0
LINE
  8
5
  6
CONTINUOUS
 62
     2
 10
288.595449215
 20
234.997300678
 11
290.327500022
 21
235.997300678
  0
LINE
  8
5
  6
CONTINUOUS
 62
     2
 10
288.595449215
 20
234.997300678
 11
289.595449215
 21
236.729351485
  0
LINE
  8
5
  6
CONTINUOUS
 62
     2
 10
327.492749892
 20
196.1
 11
287.888342434
 21
235.704407459
  0
LINE
  8
5
  6
CONTINUOUS
 62
     2
 10
366.39005057
 20
234.997300678
 11
365.39005057
 21
236.729351485
  0
LINE
  8
5
  6
CONTINUOUS
 62
     2
 10
366.39005057
 20
234.997300678
 11
364.657999762
 21
235.997300678
  0
LINE
  8
5
  6
CONTINUOUS
 62
     2
 10
327.492749892
 20
196.1
 11
367.097157351
 21
235.704407459
  0
LINE
  8
5
  6
CONTINUOUS
 62
     2
 10
321.992749892
 20
131.9
 11
333.992749892
 21
131.9
  0
TEXT
  8
5
  6
CONTINUOUS
 62
     5
 10
321.992749892
 20
132.9
 30
0.0
 40
3.5
  1
Ａ矢視図
 50
0.0
 41
0.857142857
 51
0.0
  7
KANJI13
  0
LINE
  8
0
  6
LTYPE3
 62
     2
 10
250.092749892
 20
196.1
 11
377.492749892
 21
196.1
  0
LINE
  8
0
  6
LTYPE3
 62
     2
 10
259.592749892
 20
177.6
 11
259.592749892
 21
182.6
  0
LINE
  8
0
  6
LTYPE3
 62
     2
 10
267.592749892
 20
186.1
 11
267.592749892
 21
163.6
  0
LINE
  8
0
  6
LTYPE3
 62
     2
 10
275.592749892
 20
177.6
 11
275.592749892
 21
182.6
  0
LINE
  8
0
  6
LTYPE3
 62
     2
 10
327.492749892
 20
246.1
 11
327.492749892
 21
146.1
  0
CIRCLE
  8
0
  6
LTYPE3
 62
     2
 10
327.492749892
 20
196.1
 40
30.0
  0
LINE
  8
0
  6
LTYPE3
 62
     2
 10
309.461526972
 20
214.13122292
 11
303.097565941
 21
220.495183951
  0
LINE
  8
0
  6
LTYPE3
 62
     2
 10
345.523972813
 20
214.13122292
 11
351.887933843
 21
220.495183951
  0
LINE
  8
0
  6
LTYPE3
 62
     2
 10
345.523972813
 20
178.06877708
 11
351.887933843
 21
171.704816049
  0
LINE
  8
0
  6
LTYPE3
 62
     2
 10
309.461526972
 20
178.06877708
 11
303.097565941
 21
171.704816049
  0
CIRCLE
  8
0
  6
CONTINUOUS
 62
     1
 10
310.589047932
 20
191.570666711
 40
2.5
  0
LINE
  8
0
  6
LTYPE3
 62
     2
 10
311.624324113
 20
187.706963406
 11
309.553771752
 21
195.434370016
  0
CIRCLE
  8
0
  6
CONTINUOUS
 62
     1
 10
344.396451852
 20
200.629333289
 40
2.5
  0
LINE
  8
0
  6
LTYPE3
 62
     2
 10
345.431728033
 20
196.765629984
 11
343.361175672
 21
204.493036594
  0
LINE
  8
0
  6
LTYPE3
 62
     2
 10
348.260155157
 20
201.66460947
 11
340.532748547
 21
199.594057109
  0
LINE
  8
0
  6
LTYPE3
 62
     2
 10
314.452751237
 20
192.605942891
 11
306.725344627
 21
190.53539053
  0
LINE
  8
0
  6
CONTINUOUS
 62
     1
 10
182.5
 20
174.0
 11
92.5
 21
174.0
  0
LINE
  8
0
  6
CONTINUOUS
 62
     1
 10
182.5
 20
120.0
 11
92.5
 21
120.0
  0
LINE
  8
0
  6
CONTINUOUS
 62
     1
 10
182.5
 20
115.0
 11
92.5
 21
115.0
  0
LINE
  8
0
  6
CONTINUOUS
 62
     1
 10
182.5
 20
115.0
 11
153.0
 21
114.0
  0
LINE
  8
0
  6
CONTINUOUS
 62
     1
 10
122.0
 20
114.0
 11
92.5
 21
115.0
  0
LINE
  8
0
  6
CONTINUOUS
 62
     1
 10
153.0
 20
114.0
 11
122.0
 21
114.0
  0
LINE
  8
0
  6
CONTINUOUS
 62
     1
 10
182.5
 20
174.0
 11
182.5
 21
115.0
  0
LINE
  8
0
  6
CONTINUOUS
 62
     1
 10
150.0
 20
109.0
 11
150.0
 21
114.0
  0
LINE
  8
0
  6
CONTINUOUS
 62
     1
 10
125.0
 20
114.0
 11
125.0
 21
109.0
  0
LINE
  8
0
  6
CONTINUOUS
 62
     1
 10
128.5
 20
109.0
 11
128.5
 21
104.0
  0
LINE
  8
0
  6
CONTINUOUS
 62
     1
 10
146.5
 20
109.0
 11
146.5
 21
104.0
  0
LINE
  8
0
  6
CONTINUOUS
 62
     1
 10
150.0
 20
109.0
 11
125.0
 21
109.0
  0
LINE
  8
0
  6
CONTINUOUS
 62
     1
 10
146.5
 20
104.0
 11
128.5
 21
104.0
  0
ARC
  8
0
  6
CONTINUOUS
 62
     1
 10
129.705771366
 20
181.100480947
 40
4.600480947
 50
235.615752532
 51
304.384247468
  0
ARC
  8
0
  6
CONTINUOUS
 62
     1
 10
137.5
 20
193.696152423
 40
17.196152423
 50
252.412046226
 51
287.587953774
  0
ARC
  8
0
  6
CONTINUOUS
 62
     1
 10
145.294228634
 20
181.100480947
 40
4.600480947
 50
235.615752532
 51
304.384247468
  0
ARC
  8
0
  6
CONTINUOUS
 62
     1
 10
145.294228634
 20
177.899519053
 40
4.600480947
 50
55.615752532
 51
124.384247468
  0
ARC
  8
0
  6
CONTINUOUS
 62
     1
 10
137.5
 20
165.303847577
 40
17.196152423
 50
72.412046226
 51
107.587953774
  0
ARC
  8
0
  6
CONTINUOUS
 62
     1
 10
129.705771366
 20
177.899519053
 40
4.600480947
 50
55.615752532
 51
124.384247468
  0
LINE
  8
0
  6
CONTINUOUS
 62
     1
 10
128.5
 20
182.5
 11
127.107695155
 21
181.696152423
  0
LINE
  8
0
  6
CONTINUOUS
 62
     1
 10
128.5
 20
176.5
 11
127.107695155
 21
177.303847577
  0
LINE
  8
0
  6
CONTINUOUS
 62
     1
 10
127.107695155
 20
177.303847577
 11
127.107695155
 21
181.696152423
  0
LINE
  8
0
  6
CONTINUOUS
 62
     1
 10
146.5
 20
182.5
 11
128.5
 21
182.5
  0
LINE
  8
0
  6
CONTINUOUS
 62
     1
 10
146.5
 20
182.5
 11
147.892304845
 21
181.696152423
  0
LINE
  8
0
  6
CONTINUOUS
 62
     1
 10
146.5
 20
176.5
 11
147.892304845
 21
177.303847577
  0
LINE
  8
0
  6
CONTINUOUS
 62
     1
 10
147.892304845
 20
177.303847577
 11
147.892304845
 21
181.696152423
  0
LINE
  8
0
  6
CONTINUOUS
 62
     1
 10
132.303847577
 20
177.303847577
 11
132.303847577
 21
181.696152423
  0
LINE
  8
0
  6
CONTINUOUS
 62
     1
 10
142.696152423
 20
177.303847577
 11
142.696152423
 21
181.696152423
  0
LINE
  8
0
  6
CONTINUOUS
 62
     1
 10
125.5
 20
176.5
 11
149.5
 21
176.5
  0
LINE
  8
0
  6
CONTINUOUS
 62
     1
 10
125.5
 20
174.0
 11
149.5
 21
174.0
  0
LINE
  8
0
  6
CONTINUOUS
 62
     1
 10
125.5
 20
174.0
 11
125.5
 21
176.5
  0
LINE
  8
0
  6
CONTINUOUS
 62
     1
 10
149.5
 20
174.0
 11
149.5
 21
176.5
  0
LINE
  8
0
  6
CONTINUOUS
 62
     1
 10
146.5
 20
95.5
 11
146.5
 21
101.5
  0
LINE
  8
0
  6
CONTINUOUS
 62
     1
 10
128.5
 20
101.5
 11
128.5
 21
95.5
  0
POINT
  8
0
  6
CONTINUOUS
 62
     1
 10
128.5
 20
95.5
  0
LINE
  8
0
  6
CONTINUOUS
 62
     1
 10
146.5
 20
95.5
 11
128.5
 21
95.5
  0
ARC
  8
0
  6
CONTINUOUS
 62
     1
 10
142.0
 20
108.495283582
 40
12.995283582
 50
249.740080634
 51
290.259919366
  0
ARC
  8
0
  6
CONTINUOUS
 62
     1
 10
133.0
 20
108.495283582
 40
12.995283582
 50
249.740080634
 51
290.259919366
  0
ARC
  8
0
  6
CONTINUOUS
 62
     1
 10
133.0
 20
88.504716418
 40
12.995283582
 50
69.740080634
 51
110.259919366
  0
ARC
  8
0
  6
CONTINUOUS
 62
     1
 10
142.0
 20
88.504716418
 40
12.995283582
 50
69.740080634
 51
110.259919366
  0
LINE
  8
0
  6
CONTINUOUS
 62
     1
 10
149.5
 20
104.0
 11
125.5
 21
104.0
  0
LINE
  8
0
  6
CONTINUOUS
 62
     1
 10
149.5
 20
101.5
 11
125.5
 21
101.5
  0
LINE
  8
0
  6
CONTINUOUS
 62
     1
 10
125.5
 20
104.0
 11
125.5
 21
101.5
  0
LINE
  8
0
  6
CONTINUOUS
 62
     1
 10
149.5
 20
104.0
 11
149.5
 21
101.5
  0
LINE
  8
0
  6
CONTINUOUS
 62
     1
 10
143.5
 20
94.0
 11
131.5
 21
94.0
  0
ARC
  8
0
  6
CONTINUOUS
 62
     1
 10
143.5
 20
93.0
 40
1.0
 50
90.0
 51
270.0
  0
ARC
  8
0
  6
CONTINUOUS
 62
     1
 10
131.5
 20
93.0
 40
1.0
 50
270.0
 51
90.0
  0
LINE
  8
0
  6
CONTINUOUS
 62
     1
 10
143.5
 20
184.0
 11
131.5
 21
184.0
  0
ARC
  8
0
  6
CONTINUOUS
 62
     1
 10
143.5
 20
185.0
 40
1.0
 50
90.0
 51
270.0
  0
ARC
  8
0
  6
CONTINUOUS
 62
     1
 10
131.5
 20
185.0
 40
1.0
 50
270.0
 51
90.0
  0
LINE
  8
0
  6
CONTINUOUS
 62
     2
 10
142.7
 20
184.0
 11
142.7
 21
182.5
  0
LINE
  8
0
  6
CONTINUOUS
 62
     2
 10
132.3
 20
184.0
 11
132.3
 21
182.5
  0
LINE
  8
0
  6
CONTINUOUS
 62
     1
 10
143.5
 20
184.0
 11
143.5
 21
182.5
  0
LINE
  8
0
  6
CONTINUOUS
 62
     1
 10
131.5
 20
184.0
 11
131.5
 21
182.5
  0
LINE
  8
0
  6
CONTINUOUS
 62
     1
 10
143.5
 20
94.0
 11
143.5
 21
95.5
  0
LINE
  8
0
  6
CONTINUOUS
 62
     2
 10
142.7
 20
94.0
 11
142.7
 21
95.5
  0
LINE
  8
0
  6
CONTINUOUS
 62
     2
 10
132.3
 20
94.0
 11
132.3
 21
95.5
  0
LINE
  8
0
  6
CONTINUOUS
 62
     1
 10
131.5
 20
94.0
 11
131.5
 21
95.5
  0
LINE
  8
0
  6
CONTINUOUS
 62
     1
 10
65.1
 20
172.5
 11
65.1
 21
142.5
  0
LINE
  8
0
  6
CONTINUOUS
 62
     1
 10
65.1
 20
142.5
 11
95.1
 21
142.5
  0
LINE
  8
0
  6
CONTINUOUS
 62
     1
 10
95.1
 20
172.5
 11
65.1
 21
172.5
  0
LINE
  8
0
  6
CONTINUOUS
 62
     1
 10
95.1
 20
142.5
 11
95.1
 21
172.5
  0
LINE
  8
0
  6
CONTINUOUS
 62
     1
 10
92.5
 20
115.0
 11
92.5
 21
142.5
  0
LINE
  8
0
  6
CONTINUOUS
 62
     1
 10
92.5
 20
172.5
 11
92.5
 21
174.0
  0
CIRCLE
  8
0
  6
CONTINUOUS
 62
     1
 10
77.6
 20
157.5
 40
8.0
  0
CIRCLE
  8
0
  6
CONTINUOUS
 62
     1
 10
77.6
 20
157.5
 40
6.4
  0
CIRCLE
  8
0
  6
CONTINUOUS
 62
     1
 10
77.6
 20
157.5
 40
5.0
  0
ARC
  8
0
  6
CONTINUOUS
 62
     1
 10
86.1
 20
149.0
 40
2.0
 50
270.0
 51
0.0
  0
LINE
  8
0
  6
CONTINUOUS
 62
     1
 10
88.1
 20
166.0
 11
88.1
 21
149.0
  0
ARC
  8
0
  6
CONTINUOUS
 62
     1
 10
86.1
 20
166.0
 40
2.0
 50
0.0
 51
90.0
  0
LINE
  8
0
  6
CONTINUOUS
 62
     1
 10
69.1
 20
147.0
 11
86.1
 21
147.0
  0
ARC
  8
0
  6
CONTINUOUS
 62
     1
 10
69.1
 20
149.0
 40
2.0
 50
180.0
 51
270.0
  0
LINE
  8
0
  6
CONTINUOUS
 62
     1
 10
69.1
 20
168.0
 11
86.1
 21
168.0
  0
LINE
  8
0
  6
CONTINUOUS
 62
     1
 10
67.1
 20
166.0
 11
67.1
 21
149.0
  0
ARC
  8
0
  6
CONTINUOUS
 62
     1
 10
69.1
 20
166.0
 40
2.0
 50
90.0
 51
180.0
  0
CIRCLE
  8
0
  6
CONTINUOUS
 62
     1
 10
85.6
 20
149.5
 40
2.1
  0
LINE
  8
0
  6
CONTINUOUS
 62
     1
 10
85.39
 20
150.76
 11
85.81
 21
150.76
  0
LINE
  8
0
  6
CONTINUOUS
 62
     1
 10
86.86
 20
149.71
 11
86.86
 21
149.29
  0
LINE
  8
0
  6
CONTINUOUS
 62
     1
 10
85.39
 20
148.24
 11
85.81
 21
148.24
  0
LINE
  8
0
  6
CONTINUOUS
 62
     1
 10
84.34
 20
149.71
 11
84.34
 21
149.29
  0
LINE
  8
0
  6
CONTINUOUS
 62
     1
 10
85.39
 20
148.24
 11
85.39
 21
148.66
  0
LINE
  8
0
  6
CONTINUOUS
 62
     1
 10
84.34
 20
149.29
 11
84.76
 21
149.29
  0
LINE
  8
0
  6
CONTINUOUS
 62
     1
 10
84.34
 20
149.71
 11
84.76
 21
149.71
  0
LINE
  8
0
  6
CONTINUOUS
 62
     1
 10
85.81
 20
150.76
 11
85.81
 21
150.34
  0
LINE
  8
0
  6
CONTINUOUS
 62
     1
 10
86.86
 20
149.29
 11
86.44
 21
149.29
  0
LINE
  8
0
  6
CONTINUOUS
 62
     1
 10
85.39
 20
148.24
 11
85.39
 21
148.66
  0
LINE
  8
0
  6
CONTINUOUS
 62
     1
 10
85.81
 20
148.24
 11
85.81
 21
148.66
  0
LINE
  8
0
  6
CONTINUOUS
 62
     1
 10
86.86
 20
149.71
 11
86.44
 21
149.71
  0
LINE
  8
0
  6
CONTINUOUS
 62
     1
 10
85.39
 20
150.76
 11
85.39
 21
150.34
  0
ARC
  8
0
  6
CONTINUOUS
 62
     1
 10
86.37
 20
148.73
 40
0.56
 50
82.3
 51
187.7
  0
ARC
  8
0
  6
CONTINUOUS
 62
     1
 10
86.37
 20
150.27
 40
0.56
 50
172.3
 51
277.7
  0
ARC
  8
0
  6
CONTINUOUS
 62
     1
 10
84.83
 20
150.27
 40
0.56
 50
262.3
 51
7.7
  0
ARC
  8
0
  6
CONTINUOUS
 62
     1
 10
84.83
 20
148.73
 40
0.56
 50
352.3
 51
97.7
  0
LINE
  8
0
  6
LTYPE4
 62
     2
 10
85.6
 20
152.0
 11
85.6
 21
147.0
  0
LINE
  8
0
  6
LTYPE4
 62
     2
 10
82.95
 20
149.5
 11
88.1
 21
149.5
  0
CIRCLE
  8
0
  6
CONTINUOUS
 62
     1
 10
69.6
 20
149.5
 40
2.1
  0
LINE
  8
0
  6
CONTINUOUS
 62
     1
 10
69.39
 20
150.76
 11
69.81
 21
150.76
  0
LINE
  8
0
  6
CONTINUOUS
 62
     1
 10
70.86
 20
149.71
 11
70.86
 21
149.29
  0
LINE
  8
0
  6
CONTINUOUS
 62
     1
 10
69.39
 20
148.24
 11
69.81
 21
148.24
  0
LINE
  8
0
  6
CONTINUOUS
 62
     1
 10
68.34
 20
149.71
 11
68.34
 21
149.29
  0
LINE
  8
0
  6
CONTINUOUS
 62
     1
 10
69.39
 20
148.24
 11
69.39
 21
148.66
  0
LINE
  8
0
  6
CONTINUOUS
 62
     1
 10
68.34
 20
149.29
 11
68.76
 21
149.29
  0
LINE
  8
0
  6
CONTINUOUS
 62
     1
 10
68.34
 20
149.71
 11
68.76
 21
149.71
  0
LINE
  8
0
  6
CONTINUOUS
 62
     1
 10
69.81
 20
150.76
 11
69.81
 21
150.34
  0
LINE
  8
0
  6
CONTINUOUS
 62
     1
 10
70.86
 20
149.29
 11
70.44
 21
149.29
  0
LINE
  8
0
  6
CONTINUOUS
 62
     1
 10
69.39
 20
148.24
 11
69.39
 21
148.66
  0
LINE
  8
0
  6
CONTINUOUS
 62
     1
 10
69.81
 20
148.24
 11
69.81
 21
148.66
  0
LINE
  8
0
  6
CONTINUOUS
 62
     1
 10
70.86
 20
149.71
 11
70.44
 21
149.71
  0
LINE
  8
0
  6
CONTINUOUS
 62
     1
 10
69.39
 20
150.76
 11
69.39
 21
150.34
  0
ARC
  8
0
  6
CONTINUOUS
 62
     1
 10
70.37
 20
148.73
 40
0.56
 50
82.3
 51
187.7
  0
ARC
  8
0
  6
CONTINUOUS
 62
     1
 10
70.37
 20
150.27
 40
0.56
 50
172.3
 51
277.7
  0
ARC
  8
0
  6
CONTINUOUS
 62
     1
 10
68.83
 20
150.27
 40
0.56
 50
262.3
 51
7.7
  0
ARC
  8
0
  6
CONTINUOUS
 62
     1
 10
68.83
 20
148.73
 40
0.56
 50
352.3
 51
97.7
  0
LINE
  8
0
  6
LTYPE4
 62
     2
 10
69.6
 20
152.0
 11
69.6
 21
147.0
  0
LINE
  8
0
  6
LTYPE4
 62
     2
 10
67.1
 20
149.5
 11
72.1
 21
149.5
  0
CIRCLE
  8
0
  6
CONTINUOUS
 62
     1
 10
69.6
 20
165.5
 40
2.1
  0
LINE
  8
0
  6
CONTINUOUS
 62
     1
 10
69.39
 20
166.76
 11
69.81
 21
166.76
  0
LINE
  8
0
  6
CONTINUOUS
 62
     1
 10
70.86
 20
165.71
 11
70.86
 21
165.29
  0
LINE
  8
0
  6
CONTINUOUS
 62
     1
 10
69.39
 20
164.24
 11
69.81
 21
164.24
  0
LINE
  8
0
  6
CONTINUOUS
 62
     1
 10
68.34
 20
165.71
 11
68.34
 21
165.29
  0
LINE
  8
0
  6
CONTINUOUS
 62
     1
 10
69.39
 20
164.24
 11
69.39
 21
164.66
  0
LINE
  8
0
  6
CONTINUOUS
 62
     1
 10
68.34
 20
165.29
 11
68.76
 21
165.29
  0
LINE
  8
0
  6
CONTINUOUS
 62
     1
 10
68.34
 20
165.71
 11
68.76
 21
165.71
  0
LINE
  8
0
  6
CONTINUOUS
 62
     1
 10
69.81
 20
166.76
 11
69.81
 21
166.34
  0
LINE
  8
0
  6
CONTINUOUS
 62
     1
 10
70.86
 20
165.29
 11
70.44
 21
165.29
  0
LINE
  8
0
  6
CONTINUOUS
 62
     1
 10
69.39
 20
164.24
 11
69.39
 21
164.66
  0
LINE
  8
0
  6
CONTINUOUS
 62
     1
 10
69.81
 20
164.24
 11
69.81
 21
164.66
  0
LINE
  8
0
  6
CONTINUOUS
 62
     1
 10
70.86
 20
165.71
 11
70.44
 21
165.71
  0
LINE
  8
0
  6
CONTINUOUS
 62
     1
 10
69.39
 20
166.76
 11
69.39
 21
166.34
  0
ARC
  8
0
  6
CONTINUOUS
 62
     1
 10
70.37
 20
164.73
 40
0.56
 50
82.3
 51
187.7
  0
ARC
  8
0
  6
CONTINUOUS
 62
     1
 10
70.37
 20
166.27
 40
0.56
 50
172.3
 51
277.7
  0
ARC
  8
0
  6
CONTINUOUS
 62
     1
 10
68.83
 20
166.27
 40
0.56
 50
262.3
 51
7.7
  0
ARC
  8
0
  6
CONTINUOUS
 62
     1
 10
68.83
 20
164.73
 40
0.56
 50
352.3
 51
97.7
  0
LINE
  8
0
  6
LTYPE4
 62
     2
 10
69.6
 20
168.0
 11
69.6
 21
163.0
  0
LINE
  8
0
  6
LTYPE4
 62
     2
 10
66.95
 20
165.5
 11
72.25
 21
165.5
  0
CIRCLE
  8
0
  6
CONTINUOUS
 62
     1
 10
85.6
 20
165.5
 40
2.1
  0
LINE
  8
0
  6
CONTINUOUS
 62
     1
 10
85.39
 20
166.76
 11
85.81
 21
166.76
  0
LINE
  8
0
  6
CONTINUOUS
 62
     1
 10
86.86
 20
165.71
 11
86.86
 21
165.29
  0
LINE
  8
0
  6
CONTINUOUS
 62
     1
 10
85.39
 20
164.24
 11
85.81
 21
164.24
  0
LINE
  8
0
  6
CONTINUOUS
 62
     1
 10
84.34
 20
165.71
 11
84.34
 21
165.29
  0
LINE
  8
0
  6
CONTINUOUS
 62
     1
 10
85.39
 20
164.24
 11
85.39
 21
164.66
  0
LINE
  8
0
  6
CONTINUOUS
 62
     1
 10
84.34
 20
165.29
 11
84.76
 21
165.29
  0
LINE
  8
0
  6
CONTINUOUS
 62
     1
 10
84.34
 20
165.71
 11
84.76
 21
165.71
  0
LINE
  8
0
  6
CONTINUOUS
 62
     1
 10
85.81
 20
166.76
 11
85.81
 21
166.34
  0
LINE
  8
0
  6
CONTINUOUS
 62
     1
 10
86.86
 20
165.29
 11
86.44
 21
165.29
  0
LINE
  8
0
  6
CONTINUOUS
 62
     1
 10
85.39
 20
164.24
 11
85.39
 21
164.66
  0
LINE
  8
0
  6
CONTINUOUS
 62
     1
 10
85.81
 20
164.24
 11
85.81
 21
164.66
  0
LINE
  8
0
  6
CONTINUOUS
 62
     1
 10
86.86
 20
165.71
 11
86.44
 21
165.71
  0
LINE
  8
0
  6
CONTINUOUS
 62
     1
 10
85.39
 20
166.76
 11
85.39
 21
166.34
  0
ARC
  8
0
  6
CONTINUOUS
 62
     1
 10
86.37
 20
164.73
 40
0.56
 50
82.3
 51
187.7
  0
ARC
  8
0
  6
CONTINUOUS
 62
     1
 10
86.37
 20
166.27
 40
0.56
 50
172.3
 51
277.7
  0
ARC
  8
0
  6
CONTINUOUS
 62
     1
 10
84.83
 20
166.27
 40
0.56
 50
262.3
 51
7.7
  0
ARC
  8
0
  6
CONTINUOUS
 62
     1
 10
84.83
 20
164.73
 40
0.56
 50
352.3
 51
97.7
  0
LINE
  8
0
  6
LTYPE4
 62
     2
 10
85.6
 20
168.0
 11
85.6
 21
163.0
  0
LINE
  8
0
  6
LTYPE4
 62
     2
 10
83.1
 20
165.5
 11
88.05
 21
165.5
  0
ARC
  8
0
  6
CONTINUOUS
 62
     1
 10
137.5
 20
235.0
 40
13.0
 50
66.181158607
 51
113.818841393
  0
LINE
  8
0
  6
CONTINUOUS
 62
     1
 10
144.5
 20
241.459537522
 11
144.5
 21
228.540462478
  0
LINE
  8
0
  6
CONTINUOUS
 62
     1
 10
130.5
 20
241.459537522
 11
130.5
 21
228.540462478
  0
LINE
  8
0
  6
CONTINUOUS
 62
     1
 10
132.25
 20
246.892749892
 11
132.25
 21
242.947523199
  0
LINE
  8
0
  6
CONTINUOUS
 62
     1
 10
130.0
 20
217.892749892
 11
130.0
 21
198.5
  0
LINE
  8
0
  6
CONTINUOUS
 62
     1
 10
145.0
 20
217.892749892
 11
145.0
 21
198.5
  0
LINE
  8
0
  6
CONTINUOUS
 62
     1
 10
145.0
 20
217.892749892
 11
142.75
 21
220.142749892
  0
LINE
  8
0
  6
CONTINUOUS
 62
     1
 10
142.75
 20
227.052476801
 11
142.75
 21
220.142749892
  0
LINE
  8
0
  6
CONTINUOUS
 62
     1
 10
130.0
 20
217.892749892
 11
132.25
 21
220.142749892
  0
LINE
  8
0
  6
CONTINUOUS
 62
     1
 10
142.75
 20
246.892749892
 11
142.75
 21
227.052476801
  0
LINE
  8
0
  6
CONTINUOUS
 62
     1
 10
132.25
 20
242.947523199
 11
132.25
 21
220.142749892
  0
ARC
  8
0
  6
CONTINUOUS
 62
     1
 10
137.5
 20
235.0
 40
9.525
 50
123.448079313
 51
137.299454328
  0
ARC
  8
0
  6
CONTINUOUS
 62
     1
 10
137.5
 20
235.0
 40
9.525
 50
42.700545672
 51
56.551920687
  0
ARC
  8
0
  6
CONTINUOUS
 62
     1
 10
137.5
 20
235.0
 40
9.525
 50
303.448079313
 51
317.299454328
  0
ARC
  8
0
  6
CONTINUOUS
 62
     1
 10
137.5
 20
235.0
 40
9.525
 50
222.700545672
 51
236.551920687
  0
LINE
  8
0
  6
CONTINUOUS
 62
     1
 10
131.5
 20
217.892749892
 11
143.5
 21
217.892749892
  0
CIRCLE
  8
0
  6
CONTINUOUS
 62
     1
 10
137.5
 20
43.0
 40
5.0
  0
CIRCLE
  8
0
  6
CONTINUOUS
 62
     1
 10
137.5
 20
43.0
 40
6.45
  0
CIRCLE
  8
0
  6
CONTINUOUS
 62
     1
 10
137.5
 20
43.0
 40
7.947523199
  0
CIRCLE
  8
0
  6
CONTINUOUS
 62
     1
 10
137.5
 20
43.0
 40
10.892749892
  0
LINE
  8
0
  6
CONTINUOUS
 62
     1
 10
130.0
 20
60.107250108
 11
130.0
 21
79.5
  0
LINE
  8
0
  6
CONTINUOUS
 62
     1
 10
145.0
 20
60.107250108
 11
149.682206635
 21
47.538043797
  0
LINE
  8
0
  6
CONTINUOUS
 62
     1
 10
130.0
 20
60.107250108
 11
125.317793365
 21
47.538043797
  0
LINE
  8
0
  6
CONTINUOUS
 62
     1
 10
145.0
 20
60.107250108
 11
145.0
 21
79.5
  0
ARC
  8
0
  6
CONTINUOUS
 62
     1
 10
137.5
 20
43.0
 40
13.0
 50
159.568928008
 51
20.431071992
  0
LINE
  8
0
  6
CONTINUOUS
 62
     1
 10
144.059727156
 20
56.132150726
 11
148.042327907
 21
48.504254927
  0
LINE
  8
0
  6
CONTINUOUS
 62
     1
 10
144.059727156
 20
56.132150726
 11
148.042327907
 21
48.504254927
  0
LINE
  8
0
  6
CONTINUOUS
 62
     1
 10
130.940265545
 20
56.132147081
 11
126.957669034
 21
48.504249068
  0
ARC
  8
0
  6
CONTINUOUS
 62
     1
 10
137.5
 20
43.0
 40
11.892749892
 50
152.43051975
 51
27.569512092
  0
ARC
  8
0
  6
CONTINUOUS
 62
     1
 10
137.499997303
 20
52.707250108
 40
7.4
 50
27.569512092
 51
152.43051975
  0
ARC
  8
0
  6
CONTINUOUS
 62
     1
 10
137.499999292
 20
45.547472054
 40
12.452527946
 50
58.2119307
 51
121.788101142
  0
LINE
  8
0
  6
LTYPE1
 62
     2
 10
130.5
 20
240.0
 11
144.5
 21
240.0
  0
LINE
  8
0
  6
LTYPE1
 62
     2
 10
130.5
 20
230.0
 11
144.5
 21
230.0
  0
LINE
  8
0
  6
LTYPE3
 62
     2
 10
77.6
 20
171.0
 11
77.6
 21
144.0
  0
LINE
  8
0
  6
LTYPE3
 62
     2
 10
149.5
 20
235.0
 11
125.5
 21
235.0
  0
LINE
  8
0
  6
LTYPE3
 62
     2
 10
119.5
 20
43.0
 11
155.5
 21
43.0
  0
LINE
  8
0
  6
LTYPE3
 62
     2
 10
137.5
 20
253.0
 11
137.5
 21
25.0
  0
LINE
  8
0
  6
LTYPE3
 62
     2
 10
100.1
 20
157.5
 11
60.1
 21
157.5
  0
TEXT
  8
5
  6
CONTINUOUS
 62
     5
 10
371.424592216
 20
177.762674987
 30
0.0
 40
3.5
  1
Ｐ．Ｃ．Ｄ．６０
 50
336.250505507
 41
0.857142857
 51
0.0
  7
KANJI13
  0
LINE
  8
5
  6
CONTINUOUS
 62
     2
 10
300.03329892
 20
208.182158428
 11
388.630585184
 21
169.199352472
  0
LINE
  8
5
  6
CONTINUOUS
 62
     2
 10
354.952200865
 20
184.017841572
 11
353.392420854
 21
185.269674755
  0
LINE
  8
5
  6
CONTINUOUS
 62
     2
 10
354.952200865
 20
184.017841572
 11
352.97547516
 21
184.322070904
  0
LINE
  8
5
  6
CONTINUOUS
 62
     2
 10
300.03329892
 20
208.182158428
 11
301.59307893
 21
206.930325245
  0
LINE
  8
5
  6
CONTINUOUS
 62
     2
 10
300.03329892
 20
208.182158428
 11
302.010024625
 21
207.877929096
  0
LINE
  8
5
  6
CONTINUOUS
 62
     2
 10
349.866972816
 20
172.1205656
 11
362.524592216
 21
141.962674987
  0
TEXT
  8
5
  6
CONTINUOUS
 62
     5
 10
362.524592216
 20
142.962674987
 30
0.0
 40
3.5
  1
６－Ｍ６深１２
 50
0.0
 41
0.857142857
 51
0.0
  7
KANJI13
  0
LINE
  8
5
  6
CONTINUOUS
 62
     2
 10
362.524592216
 20
141.962674987
 11
383.724592216
 21
141.962674987
  0
LINE
  8
5
  6
CONTINUOUS
 62
     2
 10
349.866972816
 20
172.1205656
 11
350.137309784
 21
170.138920343
  0
LINE
  8
5
  6
CONTINUOUS
 62
     2
 10
349.866972816
 20
172.1205656
 11
351.091914126
 21
170.53957895
  0
LINE
  8
5
  6
CONTINUOUS
 62
     2
 10
137.5
 20
268.0
 11
135.568148347
 21
268.51763809
  0
LINE
  8
5
  6
CONTINUOUS
 62
     2
 10
137.5
 20
268.0
 11
135.568148347
 21
267.48236191
  0
LINE
  8
5
  6
CONTINUOUS
 62
     2
 10
137.5
 20
268.0
 11
65.1
 21
268.0
  0
LINE
  8
5
  6
CONTINUOUS
 62
     2
 10
65.1
 20
268.0
 11
67.031851653
 21
267.48236191
  0
LINE
  8
5
  6
CONTINUOUS
 62
     2
 10
65.1
 20
268.0
 11
67.031851653
 21
268.51763809
  0
LINE
  8
5
  6
CONTINUOUS
 62
     2
 10
65.1
 20
173.5
 11
65.1
 21
269.0
  0
TEXT
  8
5
  6
CONTINUOUS
 62
     5
 10
95.3
 20
269.0
 30
0.0
 40
3.5
  1
７２．４
 50
0.0
 41
0.857142857
 51
0.0
  7
KANJI13
  0
LINE
  8
5
  6
CONTINUOUS
 62
     2
 10
137.5
 20
272.0
 11
138.01763809
 21
273.931851653
  0
LINE
  8
5
  6
CONTINUOUS
 62
     2
 10
137.5
 20
272.0
 11
136.98236191
 21
273.931851653
  0
LINE
  8
5
  6
CONTINUOUS
 62
     2
 10
130.5
 20
242.459537522
 11
130.5
 21
259.0
  0
LINE
  8
5
  6
CONTINUOUS
 62
     2
 10
130.5
 20
258.0
 11
132.431851653
 21
257.48236191
  0
LINE
  8
5
  6
CONTINUOUS
 62
     2
 10
130.5
 20
258.0
 11
132.431851653
 21
258.51763809
  0
LINE
  8
5
  6
CONTINUOUS
 62
     2
 10
130.5
 20
258.0
 11
144.5
 21
258.0
  0
LINE
  8
5
  6
CONTINUOUS
 62
     2
 10
144.5
 20
258.0
 11
142.568148347
 21
258.51763809
  0
LINE
  8
5
  6
CONTINUOUS
 62
     2
 10
144.5
 20
258.0
 11
142.568148347
 21
257.48236191
  0
LINE
  8
5
  6
CONTINUOUS
 62
     2
 10
144.5
 20
242.459537522
 11
144.5
 21
259.0
  0
TEXT
  8
5
  6
CONTINUOUS
 62
     5
 10
134.5
 20
259.0
 30
0.0
 40
3.5
  1
１４
 50
0.0
 41
0.857142857
 51
0.0
  7
KANJI13
  0
LINE
  8
5
  6
CONTINUOUS
 62
     2
 10
137.5
 20
272.0
 11
137.5
 21
277.0
  0
TEXT
  8
5
  6
CONTINUOUS
 62
     5
 10
136.0
 20
278.0
 30
0.0
 40
3.5
  1
Ａ
 50
0.0
 41
0.857142857
 51
0.0
  7
KANJI13
  0
LINE
  8
5
  6
CONTINUOUS
 62
     2
 10
137.5
 20
253.0
 11
137.5
 21
269.0
  0
LINE
  8
5
  6
CONTINUOUS
 62
     2
 10
138.5
 20
248.0
 11
218.5
 21
248.0
  0
LINE
  8
5
  6
CONTINUOUS
 62
     2
 10
217.5
 20
248.0
 11
216.98236191
 21
246.068148347
  0
LINE
  8
5
  6
CONTINUOUS
 62
     2
 10
217.5
 20
248.0
 11
218.01763809
 21
246.068148347
  0
LINE
  8
5
  6
CONTINUOUS
 62
     2
 10
217.5
 20
248.0
 11
217.5
 21
30.0
  0
LINE
  8
5
  6
CONTINUOUS
 62
     2
 10
217.5
 20
30.0
 11
218.01763809
 21
31.931851653
  0
LINE
  8
5
  6
CONTINUOUS
 62
     2
 10
217.5
 20
30.0
 11
216.98236191
 21
31.931851653
  0
LINE
  8
5
  6
CONTINUOUS
 62
     2
 10
138.5
 20
30.0
 11
218.5
 21
30.0
  0
TEXT
  8
5
  6
CONTINUOUS
 62
     5
 10
216.5
 20
134.5
 30
0.0
 40
3.5
  1
２１８
 50
90.0
 41
0.857142857
 51
0.0
  7
KANJI13
  0
LINE
  8
5
  6
CONTINUOUS
 62
     2
 10
146.5
 20
235.0
 11
208.5
 21
235.0
  0
LINE
  8
5
  6
CONTINUOUS
 62
     2
 10
207.5
 20
235.0
 11
206.98236191
 21
233.068148347
  0
LINE
  8
5
  6
CONTINUOUS
 62
     2
 10
207.5
 20
235.0
 11
208.01763809
 21
233.068148347
  0
LINE
  8
5
  6
CONTINUOUS
 62
     2
 10
207.5
 20
235.0
 11
207.5
 21
43.0
  0
LINE
  8
5
  6
CONTINUOUS
 62
     2
 10
207.5
 20
43.0
 11
208.01763809
 21
44.931851653
  0
LINE
  8
5
  6
CONTINUOUS
 62
     2
 10
207.5
 20
43.0
 11
206.98236191
 21
44.931851653
  0
LINE
  8
5
  6
CONTINUOUS
 62
     2
 10
152.5
 20
43.0
 11
208.5
 21
43.0
  0
TEXT
  8
5
  6
CONTINUOUS
 62
     5
 10
206.5
 20
134.5
 30
0.0
 40
3.5
  1
１９２
 50
90.0
 41
0.857142857
 51
0.0
  7
KANJI13
  0
LINE
  8
5
  6
CONTINUOUS
 62
     2
 10
145.5
 20
235.0
 11
198.5
 21
235.0
  0
LINE
  8
5
  6
CONTINUOUS
 62
     2
 10
197.5
 20
235.0
 11
196.98236191
 21
233.068148347
  0
LINE
  8
5
  6
CONTINUOUS
 62
     2
 10
197.5
 20
235.0
 11
198.01763809
 21
233.068148347
  0
LINE
  8
5
  6
CONTINUOUS
 62
     2
 10
197.5
 20
235.0
 11
197.5
 21
174.0
  0
LINE
  8
5
  6
CONTINUOUS
 62
     2
 10
197.5
 20
174.0
 11
198.01763809
 21
175.931851653
  0
LINE
  8
5
  6
CONTINUOUS
 62
     2
 10
197.5
 20
174.0
 11
196.98236191
 21
175.931851653
  0
LINE
  8
5
  6
CONTINUOUS
 62
     2
 10
183.5
 20
174.0
 11
198.5
 21
174.0
  0
TEXT
  8
5
  6
CONTINUOUS
 62
     5
 10
196.5
 20
201.5
 30
0.0
 40
3.5
  1
６１
 50
90.0
 41
0.857142857
 51
0.0
  7
KANJI13
  0
LINE
  8
5
  6
CONTINUOUS
 62
     2
 10
197.5
 20
174.0
 11
196.98236191
 21
172.068148347
  0
LINE
  8
5
  6
CONTINUOUS
 62
     2
 10
197.5
 20
174.0
 11
198.01763809
 21
172.068148347
  0
LINE
  8
5
  6
CONTINUOUS
 62
     2
 10
197.5
 20
174.0
 11
197.5
 21
104.0
  0
LINE
  8
5
  6
CONTINUOUS
 62
     2
 10
197.5
 20
104.0
 11
198.01763809
 21
105.931851653
  0
LINE
  8
5
  6
CONTINUOUS
 62
     2
 10
197.5
 20
104.0
 11
196.98236191
 21
105.931851653
  0
LINE
  8
5
  6
CONTINUOUS
 62
     2
 10
150.5
 20
104.0
 11
198.5
 21
104.0
  0
TEXT
  8
5
  6
CONTINUOUS
 62
     5
 10
196.5
 20
136.0
 30
0.0
 40
3.5
  1
７０
 50
90.0
 41
0.857142857
 51
0.0
  7
KANJI13
  0
LINE
  8
5
  6
CONTINUOUS
 62
     2
 10
197.5
 20
104.0
 11
196.98236191
 21
102.068148347
  0
LINE
  8
5
  6
CONTINUOUS
 62
     2
 10
197.5
 20
104.0
 11
198.01763809
 21
102.068148347
  0
LINE
  8
5
  6
CONTINUOUS
 62
     2
 10
197.5
 20
104.0
 11
197.5
 21
43.0
  0
LINE
  8
5
  6
CONTINUOUS
 62
     2
 10
197.5
 20
43.0
 11
198.01763809
 21
44.931851653
  0
LINE
  8
5
  6
CONTINUOUS
 62
     2
 10
197.5
 20
43.0
 11
196.98236191
 21
44.931851653
  0
LINE
  8
5
  6
CONTINUOUS
 62
     2
 10
151.5
 20
43.0
 11
198.5
 21
43.0
  0
TEXT
  8
5
  6
CONTINUOUS
 62
     5
 10
196.5
 20
70.5
 30
0.0
 40
3.5
  1
６１
 50
90.0
 41
0.857142857
 51
0.0
  7
KANJI13
  0
LINE
  8
5
  6
CONTINUOUS
 62
     2
 10
129.5
 20
240.0
 11
119.5
 21
240.0
  0
LINE
  8
5
  6
CONTINUOUS
 62
     2
 10
120.5
 20
240.0
 11
119.98236191
 21
238.068148347
  0
LINE
  8
5
  6
CONTINUOUS
 62
     2
 10
120.5
 20
240.0
 11
121.01763809
 21
238.068148347
  0
LINE
  8
5
  6
CONTINUOUS
 62
     2
 10
120.5
 20
240.0
 11
120.5
 21
230.0
  0
LINE
  8
5
  6
CONTINUOUS
 62
     2
 10
120.5
 20
230.0
 11
121.01763809
 21
231.931851653
  0
LINE
  8
5
  6
CONTINUOUS
 62
     2
 10
120.5
 20
230.0
 11
119.98236191
 21
231.931851653
  0
LINE
  8
5
  6
CONTINUOUS
 62
     2
 10
129.5
 20
230.0
 11
119.5
 21
230.0
  0
TEXT
  8
5
  6
CONTINUOUS
 62
     5
 10
119.5
 20
230.5
 30
0.0
 40
3.5
  1
φ１０
 50
90.0
 41
0.857142857
 51
0.0
  7
KANJI13
  0
LINE
  8
5
  6
CONTINUOUS
 62
     2
 10
64.1
 20
172.5
 11
54.1
 21
172.5
  0
LINE
  8
5
  6
CONTINUOUS
 62
     2
 10
55.1
 20
172.5
 11
54.58236191
 21
170.568148347
  0
LINE
  8
5
  6
CONTINUOUS
 62
     2
 10
55.1
 20
172.5
 11
55.61763809
 21
170.568148347
  0
LINE
  8
5
  6
CONTINUOUS
 62
     2
 10
55.1
 20
172.5
 11
55.1
 21
142.5
  0
LINE
  8
5
  6
CONTINUOUS
 62
     2
 10
55.1
 20
142.5
 11
55.61763809
 21
144.431851653
  0
LINE
  8
5
  6
CONTINUOUS
 62
     2
 10
55.1
 20
142.5
 11
54.58236191
 21
144.431851653
  0
LINE
  8
5
  6
CONTINUOUS
 62
     2
 10
64.1
 20
142.5
 11
54.1
 21
142.5
  0
LINE
  8
5
  6
CONTINUOUS
 62
     2
 10
45.1
 20
157.5
 11
45.61763809
 21
159.431851653
  0
LINE
  8
5
  6
CONTINUOUS
 62
     2
 10
45.1
 20
157.5
 11
44.58236191
 21
159.431851653
  0
LINE
  8
5
  6
CONTINUOUS
 62
     2
 10
45.1
 20
157.5
 11
45.1
 21
174.0
  0
LINE
  8
5
  6
CONTINUOUS
 62
     2
 10
45.1
 20
174.0
 11
44.58236191
 21
172.068148347
  0
LINE
  8
5
  6
CONTINUOUS
 62
     2
 10
45.1
 20
174.0
 11
45.61763809
 21
172.068148347
  0
LINE
  8
5
  6
CONTINUOUS
 62
     2
 10
91.5
 20
174.0
 11
44.1
 21
174.0
  0
TEXT
  8
5
  6
CONTINUOUS
 62
     5
 10
44.1
 20
159.75
 30
0.0
 40
3.5
  1
１６．５
 50
90.0
 41
0.857142857
 51
0.0
  7
KANJI13
  0
TEXT
  8
5
  6
CONTINUOUS
 62
     5
 10
54.1
 20
148.0
 30
0.0
 40
3.5
  1
□３０
 50
90.0
 41
0.857142857
 51
0.0
  7
KANJI13
  0
LINE
  8
5
  6
CONTINUOUS
 62
     2
 10
60.1
 20
157.5
 11
44.1
 21
157.5
  0
LINE
  8
5
  6
CONTINUOUS
 62
     2
 10
92.5
 20
15.0
 11
94.431851653
 21
14.48236191
  0
LINE
  8
5
  6
CONTINUOUS
 62
     2
 10
92.5
 20
15.0
 11
94.431851653
 21
15.51763809
  0
LINE
  8
5
  6
CONTINUOUS
 62
     2
 10
92.5
 20
15.0
 11
182.5
 21
15.0
  0
LINE
  8
5
  6
CONTINUOUS
 62
     2
 10
182.5
 20
15.0
 11
180.568148347
 21
15.51763809
  0
LINE
  8
5
  6
CONTINUOUS
 62
     2
 10
182.5
 20
15.0
 11
180.568148347
 21
14.48236191
  0
TEXT
  8
5
  6
CONTINUOUS
 62
     5
 10
133.0
 20
16.0
 30
0.0
 40
3.5
  1
φ９０
 50
0.0
 41
0.857142857
 51
0.0
  7
KANJI13
  0
LINE
  8
5
  6
CONTINUOUS
 62
     2
 10
92.5
 20
114.0
 11
92.5
 21
14.0
  0
LINE
  8
5
  6
CONTINUOUS
 62
     2
 10
182.5
 20
114.0
 11
182.5
 21
14.0
  0
TEXT
  8
0
  6
CONTINUOUS
 62
     5
 10
327.0
 20
71.0
 30
0.0
 40
3.5
  1
５０，１００，２００，５００　Ｎ、１，２，５　ｋＮ
 50
0.0
 41
0.857142857
 51
0.0
  7
KANJI13
  0
LINE
  8
0
  6
CONTINUOUS
 62
     1
 10
145.0
 20
198.5
 11
146.0
 21
197.5
  0
LINE
  8
0
  6
CONTINUOUS
 62
     1
 10
130.0
 20
198.5
 11
129.0
 21
197.5
  0
LINE
  8
0
  6
CONTINUOUS
 62
     1
 10
146.0
 20
192.0
 11
129.0
 21
192.0
  0
LINE
  8
0
  6
CONTINUOUS
 62
     1
 10
146.0
 20
192.0
 11
146.0
 21
197.5
  0
LINE
  8
0
  6
CONTINUOUS
 62
     1
 10
129.0
 20
192.0
 11
129.0
 21
197.5
  0
LINE
  8
0
  6
CONTINUOUS
 62
     1
 10
129.0
 20
197.5
 11
146.0
 21
197.5
  0
LINE
  8
0
  6
CONTINUOUS
 62
     1
 10
129.0
 20
186.0
 11
146.0
 21
186.0
  0
LINE
  8
0
  6
CONTINUOUS
 62
     1
 10
129.0
 20
186.0
 11
129.0
 21
192.0
  0
LINE
  8
0
  6
CONTINUOUS
 62
     1
 10
146.0
 20
186.0
 11
146.0
 21
192.0
  0
LINE
  8
0
  6
CONTINUOUS
 62
     1
 10
145.0
 20
198.5
 11
130.0
 21
198.5
  0
LINE
  8
0
  6
CONTINUOUS
 62
     1
 10
130.0
 20
79.5
 11
128.0
 21
81.5
  0
LINE
  8
0
  6
CONTINUOUS
 62
     1
 10
145.0
 20
79.5
 11
147.0
 21
81.5
  0
LINE
  8
0
  6
CONTINUOUS
 62
     1
 10
147.0
 20
81.5
 11
147.0
 21
86.0
  0
LINE
  8
0
  6
CONTINUOUS
 62
     1
 10
128.0
 20
81.5
 11
128.0
 21
86.0
  0
ARC
  8
0
  6
CONTINUOUS
 62
     1
 10
137.5
 20
90.0015245
 40
9.5015245
 50
243.476814874
 51
296.523185126
  0
LINE
  8
0
  6
CONTINUOUS
 62
     1
 10
133.257
 20
81.5
 11
133.257
 21
86.0
  0
LINE
  8
0
  6
CONTINUOUS
 62
     1
 10
141.743
 20
81.5
 11
141.743
 21
86.0
  0
LINE
  8
0
  6
CONTINUOUS
 62
     1
 10
141.743
 20
81.5
 11
147.0
 21
81.5
  0
LINE
  8
0
  6
CONTINUOUS
 62
     1
 10
128.0
 20
81.5
 11
133.257
 21
81.5
  0
LINE
  8
0
  6
CONTINUOUS
 62
     2
 10
141.743
 20
81.5
 11
133.257
 21
86.0
  0
LINE
  8
0
  6
CONTINUOUS
 62
     2
 10
133.257
 20
81.5
 11
141.743
 21
86.0
  0
LINE
  8
0
  6
CONTINUOUS
 62
     1
 10
127.5
 20
86.0
 11
147.5
 21
86.0
  0
LINE
  8
0
  6
CONTINUOUS
 62
     1
 10
127.5
 20
92.0
 11
147.5
 21
92.0
  0
LINE
  8
0
  6
CONTINUOUS
 62
     1
 10
147.5
 20
86.0
 11
147.5
 21
92.0
  0
LINE
  8
0
  6
CONTINUOUS
 62
     1
 10
127.5
 20
86.0
 11
127.5
 21
92.0
  0
LINE
  8
0
  6
CONTINUOUS
 62
     1
 10
142.767826876
 20
86.0
 11
142.767826876
 21
92.0
  0
LINE
  8
0
  6
CONTINUOUS
 62
     1
 10
132.232173124
 20
92.0
 11
132.232173124
 21
86.0
  0
LINE
  8
0
  6
CONTINUOUS
 62
     2
 10
142.767826876
 20
86.0
 11
132.232173124
 21
92.0
  0
LINE
  8
0
  6
CONTINUOUS
 62
     2
 10
132.232173124
 20
86.0
 11
142.767826876
 21
92.0
  0
LINE
  8
0
  6
CONTINUOUS
 62
     1
 10
130.0
 20
79.5
 11
145.0
 21
79.5
  0
TEXT
  8
6
  6
CONTINUOUS
 62
     5
 10
266.5
 20
40.5
 30
0.0
 40
3.0
  1
１０．２０
 50
90.0
 41
0.666666667
 51
0.0
  7
KANJI10
  0
TEXT
  8
6
  6
CONTINUOUS
 62
     5
 10
341.0
 20
33.0
 30
-0.5
 40
3.0
  1
１０．２０
 50
0.0
 41
0.833333333
 51
0.0
  7
KANJI12
  0
LINE
  8
5
  6
CONTINUOUS
 62
     2
 10
117.5
 20
20.0
 11
118.276457135
 21
22.897777479
  0
LINE
  8
5
  6
CONTINUOUS
 62
     2
 10
117.5
 20
20.0
 11
116.723542865
 21
22.897777479
  0
LINE
  8
5
  6
CONTINUOUS
 62
     2
 10
117.5
 20
20.0
 11
117.5
 21
30.0
  0
TEXT
  8
5
  6
CONTINUOUS
 62
     5
 10
100.5
 20
25.0
 30
0.0
 40
4.0
  1
負荷方向
 50
0.0
 41
0.875
 51
0.0
  7
KANJI4
  0
TEXT
  8
5
  6
CONTINUOUS
 62
     5
 10
106.0
 20
20.0
 30
0.0
 40
4.0
  1
（＋）
 50
0.0
 41
0.875
 51
0.0
  7
KANJI4
  0
LINE
  8
0
  6
CONTINUOUS
 62
     1
 10
137.5
 20
100.696
 11
137.5
 21
96.304
  0
ENDSEC
  0
EOF
