  0
SECTION
  2
HEADER
  9
$EXTMIN
 10
0.0
 20
0.0
 30
0.0
  9
$EXTMAX
 10
840.0
 20
594.0
 30
0.0
  9
$LIMMIN
 10
0.0
 20
0.0
  9
$LIMMAX
 10
840.0
 20
594.0
  9
$LTSCALE
 40
1.0
  9
$PDMODE
 70
     0
  0
ENDSEC
  0
SECTION
  2
TABLES
  0
TABLE
  2
LTYPE
 70
     5
  0
LTYPE
  2
CONTINUOUS
 70
    64
  3
Solid line
 72
    65
 73
     0
 40
0.0
  0
LTYPE
  2
LTYPE1
 70
    64
  3
PHANTOM
 72
    65
 73
     6
 40
20.0
 49
15.0
 49
-1.0
 49
1.0
 49
-1.0
 49
1.0
 49
-1.0
  0
LTYPE
  2
LTYPE2
 70
    64
  3
HIDDEN
 72
    65
 73
     2
 40
4.0
 49
2.4
 49
-1.6
  0
LTYPE
  2
LTYPE3
 70
    64
  3
CENTER
 72
    65
 73
     4
 40
20.0
 49
14.0
 49
-2.0
 49
2.0
 49
-2.0
  0
LTYPE
  2
LTYPE4
 70
    64
  3
CENTER
 72
    65
 73
     4
 40
16.0
 49
11.2
 49
-1.6
 49
1.6
 49
-1.6
  0
ENDTAB
  0
TABLE
  2
LAYER
 70
   128
  0
LAYER
  2
0
 70
     0
 62
     7
  6
CONTINUOUS
  0
LAYER
  2
ハッチング
 70
     0
 62
     7
  6
CONTINUOUS
  0
LAYER
  2
治具
 70
     0
 62
     7
  6
CONTINUOUS
  0
LAYER
  2
購入品
 70
     0
 62
     7
  6
CONTINUOUS
  0
LAYER
  2
寸法線
 70
     0
 62
     7
  6
CONTINUOUS
  0
LAYER
  2
表題欄
 70
     0
 62
     7
  6
CONTINUOUS
  0
LAYER
  2
図枠
 70
     0
 62
     7
  6
CONTINUOUS
  0
LAYER
  2
8
 70
     0
 62
     7
  6
CONTINUOUS
  0
LAYER
  2
9
 70
     0
 62
     7
  6
CONTINUOUS
  0
LAYER
  2
10
 70
     0
 62
     7
  6
CONTINUOUS
  0
LAYER
  2
11
 70
     0
 62
     7
  6
CONTINUOUS
  0
LAYER
  2
12
 70
     0
 62
     7
  6
CONTINUOUS
  0
LAYER
  2
13
 70
     0
 62
     7
  6
CONTINUOUS
  0
LAYER
  2
14
 70
     0
 62
     7
  6
CONTINUOUS
  0
LAYER
  2
15
 70
     0
 62
     7
  6
CONTINUOUS
  0
LAYER
  2
16
 70
     0
 62
     7
  6
CONTINUOUS
  0
LAYER
  2
17
 70
     0
 62
     7
  6
CONTINUOUS
  0
LAYER
  2
18
 70
     0
 62
     7
  6
CONTINUOUS
  0
LAYER
  2
19
 70
     0
 62
     7
  6
CONTINUOUS
  0
LAYER
  2
20
 70
     0
 62
     7
  6
CONTINUOUS
  0
LAYER
  2
21
 70
     0
 62
     7
  6
CONTINUOUS
  0
LAYER
  2
22
 70
     0
 62
     7
  6
CONTINUOUS
  0
LAYER
  2
23
 70
     0
 62
     7
  6
CONTINUOUS
  0
LAYER
  2
24
 70
     0
 62
     7
  6
CONTINUOUS
  0
LAYER
  2
25
 70
     0
 62
     7
  6
CONTINUOUS
  0
LAYER
  2
26
 70
     0
 62
     7
  6
CONTINUOUS
  0
LAYER
  2
27
 70
     0
 62
     7
  6
CONTINUOUS
  0
LAYER
  2
28
 70
     0
 62
     7
  6
CONTINUOUS
  0
LAYER
  2
29
 70
     0
 62
     7
  6
CONTINUOUS
  0
LAYER
  2
30
 70
     0
 62
     7
  6
CONTINUOUS
  0
LAYER
  2
31
 70
     0
 62
     7
  6
CONTINUOUS
  0
LAYER
  2
32
 70
     0
 62
     7
  6
CONTINUOUS
  0
LAYER
  2
33
 70
     0
 62
     7
  6
CONTINUOUS
  0
LAYER
  2
34
 70
     0
 62
     7
  6
CONTINUOUS
  0
LAYER
  2
35
 70
     0
 62
     7
  6
CONTINUOUS
  0
LAYER
  2
36
 70
     0
 62
     7
  6
CONTINUOUS
  0
LAYER
  2
37
 70
     0
 62
     7
  6
CONTINUOUS
  0
LAYER
  2
38
 70
     0
 62
     7
  6
CONTINUOUS
  0
LAYER
  2
39
 70
     0
 62
     7
  6
CONTINUOUS
  0
LAYER
  2
40
 70
     0
 62
     7
  6
CONTINUOUS
  0
LAYER
  2
41
 70
     0
 62
     7
  6
CONTINUOUS
  0
LAYER
  2
42
 70
     0
 62
     7
  6
CONTINUOUS
  0
LAYER
  2
43
 70
     0
 62
     7
  6
CONTINUOUS
  0
LAYER
  2
44
 70
     0
 62
     7
  6
CONTINUOUS
  0
LAYER
  2
45
 70
     0
 62
     7
  6
CONTINUOUS
  0
LAYER
  2
46
 70
     0
 62
     7
  6
CONTINUOUS
  0
LAYER
  2
47
 70
     0
 62
     7
  6
CONTINUOUS
  0
LAYER
  2
48
 70
     0
 62
     7
  6
CONTINUOUS
  0
LAYER
  2
49
 70
     0
 62
     7
  6
CONTINUOUS
  0
LAYER
  2
50
 70
     0
 62
     7
  6
CONTINUOUS
  0
LAYER
  2
51
 70
     0
 62
     7
  6
CONTINUOUS
  0
LAYER
  2
52
 70
     0
 62
     7
  6
CONTINUOUS
  0
LAYER
  2
53
 70
     0
 62
     7
  6
CONTINUOUS
  0
LAYER
  2
54
 70
     0
 62
     7
  6
CONTINUOUS
  0
LAYER
  2
55
 70
     0
 62
     7
  6
CONTINUOUS
  0
LAYER
  2
56
 70
     0
 62
     7
  6
CONTINUOUS
  0
LAYER
  2
57
 70
     0
 62
     7
  6
CONTINUOUS
  0
LAYER
  2
58
 70
     0
 62
     7
  6
CONTINUOUS
  0
LAYER
  2
59
 70
     0
 62
     7
  6
CONTINUOUS
  0
LAYER
  2
60
 70
     0
 62
     7
  6
CONTINUOUS
  0
LAYER
  2
61
 70
     0
 62
     7
  6
CONTINUOUS
  0
LAYER
  2
62
 70
     0
 62
     7
  6
CONTINUOUS
  0
LAYER
  2
63
 70
     0
 62
     7
  6
CONTINUOUS
  0
LAYER
  2
64
 70
     0
 62
     7
  6
CONTINUOUS
  0
LAYER
  2
65
 70
     0
 62
     7
  6
CONTINUOUS
  0
LAYER
  2
66
 70
     0
 62
     7
  6
CONTINUOUS
  0
LAYER
  2
67
 70
     0
 62
     7
  6
CONTINUOUS
  0
LAYER
  2
68
 70
     0
 62
     7
  6
CONTINUOUS
  0
LAYER
  2
69
 70
     0
 62
     7
  6
CONTINUOUS
  0
LAYER
  2
70
 70
     0
 62
     7
  6
CONTINUOUS
  0
LAYER
  2
71
 70
     0
 62
     7
  6
CONTINUOUS
  0
LAYER
  2
72
 70
     0
 62
     7
  6
CONTINUOUS
  0
LAYER
  2
73
 70
     0
 62
     7
  6
CONTINUOUS
  0
LAYER
  2
74
 70
     0
 62
     7
  6
CONTINUOUS
  0
LAYER
  2
75
 70
     0
 62
     7
  6
CONTINUOUS
  0
LAYER
  2
76
 70
     0
 62
     7
  6
CONTINUOUS
  0
LAYER
  2
77
 70
     0
 62
     7
  6
CONTINUOUS
  0
LAYER
  2
78
 70
     0
 62
     7
  6
CONTINUOUS
  0
LAYER
  2
79
 70
     0
 62
     7
  6
CONTINUOUS
  0
LAYER
  2
80
 70
     0
 62
     7
  6
CONTINUOUS
  0
LAYER
  2
81
 70
     0
 62
     7
  6
CONTINUOUS
  0
LAYER
  2
82
 70
     0
 62
     7
  6
CONTINUOUS
  0
LAYER
  2
83
 70
     0
 62
     7
  6
CONTINUOUS
  0
LAYER
  2
84
 70
     0
 62
     7
  6
CONTINUOUS
  0
LAYER
  2
85
 70
     0
 62
     7
  6
CONTINUOUS
  0
LAYER
  2
86
 70
     0
 62
     7
  6
CONTINUOUS
  0
LAYER
  2
87
 70
     0
 62
     7
  6
CONTINUOUS
  0
LAYER
  2
88
 70
     0
 62
     7
  6
CONTINUOUS
  0
LAYER
  2
89
 70
     0
 62
     7
  6
CONTINUOUS
  0
LAYER
  2
90
 70
     0
 62
     7
  6
CONTINUOUS
  0
LAYER
  2
91
 70
     0
 62
     7
  6
CONTINUOUS
  0
LAYER
  2
92
 70
     0
 62
     7
  6
CONTINUOUS
  0
LAYER
  2
93
 70
     0
 62
     7
  6
CONTINUOUS
  0
LAYER
  2
94
 70
     0
 62
     7
  6
CONTINUOUS
  0
LAYER
  2
95
 70
     0
 62
     7
  6
CONTINUOUS
  0
LAYER
  2
96
 70
     0
 62
     7
  6
CONTINUOUS
  0
LAYER
  2
97
 70
     0
 62
     7
  6
CONTINUOUS
  0
LAYER
  2
98
 70
     0
 62
     7
  6
CONTINUOUS
  0
LAYER
  2
99
 70
     0
 62
     7
  6
CONTINUOUS
  0
LAYER
  2
100
 70
     0
 62
     7
  6
CONTINUOUS
  0
LAYER
  2
101
 70
     0
 62
     7
  6
CONTINUOUS
  0
LAYER
  2
102
 70
     0
 62
     7
  6
CONTINUOUS
  0
LAYER
  2
103
 70
     0
 62
     7
  6
CONTINUOUS
  0
LAYER
  2
104
 70
     0
 62
     7
  6
CONTINUOUS
  0
LAYER
  2
105
 70
     0
 62
     7
  6
CONTINUOUS
  0
LAYER
  2
106
 70
     0
 62
     7
  6
CONTINUOUS
  0
LAYER
  2
107
 70
     0
 62
     7
  6
CONTINUOUS
  0
LAYER
  2
108
 70
     0
 62
     7
  6
CONTINUOUS
  0
LAYER
  2
109
 70
     0
 62
     7
  6
CONTINUOUS
  0
LAYER
  2
110
 70
     0
 62
     7
  6
CONTINUOUS
  0
LAYER
  2
111
 70
     0
 62
     7
  6
CONTINUOUS
  0
LAYER
  2
112
 70
     0
 62
     7
  6
CONTINUOUS
  0
LAYER
  2
113
 70
     0
 62
     7
  6
CONTINUOUS
  0
LAYER
  2
114
 70
     0
 62
     7
  6
CONTINUOUS
  0
LAYER
  2
115
 70
     0
 62
     7
  6
CONTINUOUS
  0
LAYER
  2
116
 70
     0
 62
     7
  6
CONTINUOUS
  0
LAYER
  2
117
 70
     0
 62
     7
  6
CONTINUOUS
  0
LAYER
  2
118
 70
     0
 62
     7
  6
CONTINUOUS
  0
LAYER
  2
119
 70
     0
 62
     7
  6
CONTINUOUS
  0
LAYER
  2
120
 70
     0
 62
     7
  6
CONTINUOUS
  0
LAYER
  2
121
 70
     0
 62
     7
  6
CONTINUOUS
  0
LAYER
  2
122
 70
     0
 62
     7
  6
CONTINUOUS
  0
LAYER
  2
123
 70
     0
 62
     7
  6
CONTINUOUS
  0
LAYER
  2
124
 70
     0
 62
     7
  6
CONTINUOUS
  0
LAYER
  2
125
 70
     0
 62
     7
  6
CONTINUOUS
  0
LAYER
  2
126
 70
     0
 62
     7
  6
CONTINUOUS
  0
LAYER
  2
127
 70
     0
 62
     7
  6
CONTINUOUS
  0
LAYER
  2
128
 70
     0
 62
     7
  6
CONTINUOUS
  0
ENDTAB
  0
TABLE
  2
STYLE
 70
    13
  0
STYLE
  2
STANDARD
 70
     0
 40
0.0
 41
1.0
 50
0.0
 71
     0
 42
0.2
  3
txt
  4

  0
STYLE
  2
KANJI0
 70
     0
 40
8.0
 41
0.875
 50
0.0
 71
     0
 42
8.0
  3

  4
bigfont
  0
STYLE
  2
KANJI1
 70
     0
 40
10.0
 41
1.0
 50
0.0
 71
     0
 42
10.0
  3

  4
bigfont
  0
STYLE
  2
KANJI2
 70
     0
 40
10.0
 41
1.2
 50
0.0
 71
     0
 42
10.0
  3

  4
bigfont
  0
STYLE
  2
KANJI3
 70
     0
 40
6.0
 41
0.666666667
 50
0.0
 71
     0
 42
6.0
  3

  4
bigfont
  0
STYLE
  2
KANJI4
 70
     0
 40
6.0
 41
1.0
 50
0.0
 71
     0
 42
6.0
  3

  4
bigfont
  0
STYLE
  2
KANJI5
 70
     0
 40
5.0
 41
1.0
 50
0.0
 71
     0
 42
5.0
  3

  4
bigfont
  0
STYLE
  2
KANJI6
 70
     0
 40
5.0
 41
1.0
 50
0.0
 71
     0
 42
5.0
  3

  4
bigfont
  0
STYLE
  2
KANJI7
 70
     0
 40
5.0
 41
1.0
 50
0.0
 71
     0
 42
5.0
  3

  4
bigfont
  0
STYLE
  2
KANJI8
 70
     0
 40
8.0
 41
1.125
 50
0.0
 71
     0
 42
8.0
  3

  4
bigfont
  0
STYLE
  2
KANJI9
 70
     0
 40
14.0
 41
0.857142857
 50
0.0
 71
     0
 42
14.0
  3

  4
bigfont
  0
STYLE
  2
KANJI10
 70
     0
 40
6.0
 41
0.833333333
 50
0.0
 71
     0
 42
6.0
  3

  4
bigfont
  0
STYLE
  2
KANJI11
 70
     0
 40
8.0
 41
0.875
 50
0.0
 71
     0
 42
8.0
  3

  4
bigfont
  0
ENDTAB
  0
TABLE
  2
VIEW
 70
     0
  0
ENDTAB
  0
ENDSEC
  0
SECTION
  2
BLOCKS
  0
ENDSEC
  0
SECTION
  2
ENTITIES
  0
TEXT
  8
表題欄
  6
CONTINUOUS
 62
     5
 10
686.0
 20
46.0
 30
0.0
 40
8.0
  1
益子
 50
0.0
 41
0.875
 51
0.0
  7
KANJI0
  0
LINE
  8
図枠
  6
CONTINUOUS
 62
     2
 10
820.0
 20
397.0
 11
830.0
 21
397.0
  0
LINE
  8
図枠
  6
CONTINUOUS
 62
     2
 10
820.0
 20
497.0
 11
830.0
 21
497.0
  0
LINE
  8
図枠
  6
CONTINUOUS
 62
     2
 10
820.0
 20
197.0
 11
830.0
 21
197.0
  0
LINE
  8
図枠
  6
CONTINUOUS
 62
     2
 10
820.0
 20
97.0
 11
830.0
 21
97.0
  0
LINE
  8
図枠
  6
CONTINUOUS
 62
     2
 10
820.0
 20
150.0
 11
815.0
 21
150.0
  0
LINE
  8
図枠
  6
CONTINUOUS
 62
     2
 10
820.0
 20
166.0
 11
815.0
 21
166.0
  0
LINE
  8
図枠
  6
CONTINUOUS
 62
     2
 10
820.0
 20
182.0
 11
815.0
 21
182.0
  0
TEXT
  8
図枠
  6
CONTINUOUS
 62
     6
 10
823.0
 20
542.0
 30
0.0
 40
10.0
  1
Ａ
 50
0.0
 41
1.0
 51
0.0
  7
KANJI1
  0
TEXT
  8
図枠
  6
CONTINUOUS
 62
     6
 10
823.0
 20
442.0
 30
0.0
 40
10.0
  1
Ｂ
 50
0.0
 41
1.0
 51
0.0
  7
KANJI1
  0
TEXT
  8
図枠
  6
CONTINUOUS
 62
     6
 10
823.0
 20
342.0
 30
0.0
 40
10.0
  1
Ｃ
 50
0.0
 41
1.0
 51
0.0
  7
KANJI1
  0
TEXT
  8
図枠
  6
CONTINUOUS
 62
     6
 10
823.0
 20
242.0
 30
0.0
 40
10.0
  1
Ｄ
 50
0.0
 41
1.0
 51
0.0
  7
KANJI1
  0
TEXT
  8
図枠
  6
CONTINUOUS
 62
     6
 10
823.0
 20
142.0
 30
0.0
 40
10.0
  1
Ｅ
 50
0.0
 41
1.0
 51
0.0
  7
KANJI1
  0
TEXT
  8
図枠
  6
CONTINUOUS
 62
     6
 10
823.0
 20
42.0
 30
0.0
 40
10.0
  1
Ｆ
 50
0.0
 41
1.0
 51
0.0
  7
KANJI1
  0
LINE
  8
図枠
  6
CONTINUOUS
 62
     2
 10
50.0
 20
397.0
 11
40.0
 21
397.0
  0
LINE
  8
図枠
  6
CONTINUOUS
 62
     2
 10
50.0
 20
497.0
 11
40.0
 21
497.0
  0
LINE
  8
図枠
  6
CONTINUOUS
 62
     2
 10
50.0
 20
197.0
 11
40.0
 21
197.0
  0
LINE
  8
図枠
  6
CONTINUOUS
 62
     2
 10
50.0
 20
97.0
 11
40.0
 21
97.0
  0
TEXT
  8
図枠
  6
CONTINUOUS
 62
     6
 10
37.0
 20
542.0
 30
0.0
 40
10.0
  1
Ａ
 50
0.0
 41
1.0
 51
0.0
  7
KANJI1
  0
TEXT
  8
図枠
  6
CONTINUOUS
 62
     6
 10
37.0
 20
442.0
 30
0.0
 40
10.0
  1
Ｂ
 50
0.0
 41
1.0
 51
0.0
  7
KANJI1
  0
TEXT
  8
図枠
  6
CONTINUOUS
 62
     6
 10
37.0
 20
342.0
 30
0.0
 40
10.0
  1
Ｃ
 50
0.0
 41
1.0
 51
0.0
  7
KANJI1
  0
TEXT
  8
図枠
  6
CONTINUOUS
 62
     6
 10
37.0
 20
242.0
 30
0.0
 40
10.0
  1
Ｄ
 50
0.0
 41
1.0
 51
0.0
  7
KANJI1
  0
TEXT
  8
図枠
  6
CONTINUOUS
 62
     6
 10
37.0
 20
142.0
 30
0.0
 40
10.0
  1
Ｅ
 50
0.0
 41
1.0
 51
0.0
  7
KANJI1
  0
TEXT
  8
図枠
  6
CONTINUOUS
 62
     6
 10
37.0
 20
42.0
 30
0.0
 40
10.0
  1
Ｆ
 50
0.0
 41
1.0
 51
0.0
  7
KANJI1
  0
LINE
  8
図枠
  6
CONTINUOUS
 62
     2
 10
320.0
 20
574.0
 11
320.0
 21
584.0
  0
LINE
  8
図枠
  6
CONTINUOUS
 62
     2
 10
220.0
 20
584.0
 11
220.0
 21
574.0
  0
LINE
  8
図枠
  6
CONTINUOUS
 62
     2
 10
120.0
 20
584.0
 11
120.0
 21
574.0
  0
LINE
  8
図枠
  6
CONTINUOUS
 62
     2
 10
520.0
 20
584.0
 11
520.0
 21
574.0
  0
LINE
  8
図枠
  6
CONTINUOUS
 62
     2
 10
620.0
 20
584.0
 11
620.0
 21
574.0
  0
TEXT
  8
図枠
  6
CONTINUOUS
 62
     6
 10
64.0
 20
577.0
 30
0.0
 40
10.0
  1
１
 50
0.0
 41
1.2
 51
0.0
  7
KANJI2
  0
TEXT
  8
図枠
  6
CONTINUOUS
 62
     6
 10
164.0
 20
577.0
 30
0.0
 40
10.0
  1
２
 50
0.0
 41
1.2
 51
0.0
  7
KANJI2
  0
TEXT
  8
図枠
  6
CONTINUOUS
 62
     6
 10
264.0
 20
577.0
 30
0.0
 40
10.0
  1
３
 50
0.0
 41
1.2
 51
0.0
  7
KANJI2
  0
TEXT
  8
図枠
  6
CONTINUOUS
 62
     6
 10
364.0
 20
577.0
 30
0.0
 40
10.0
  1
４
 50
0.0
 41
1.2
 51
0.0
  7
KANJI2
  0
TEXT
  8
図枠
  6
CONTINUOUS
 62
     6
 10
464.0
 20
577.0
 30
0.0
 40
10.0
  1
５
 50
0.0
 41
1.2
 51
0.0
  7
KANJI2
  0
TEXT
  8
図枠
  6
CONTINUOUS
 62
     6
 10
564.0
 20
577.0
 30
0.0
 40
10.0
  1
６
 50
0.0
 41
1.2
 51
0.0
  7
KANJI2
  0
TEXT
  8
図枠
  6
CONTINUOUS
 62
     6
 10
664.0
 20
577.0
 30
0.0
 40
10.0
  1
７
 50
0.0
 41
1.2
 51
0.0
  7
KANJI2
  0
TEXT
  8
図枠
  6
CONTINUOUS
 62
     6
 10
764.0
 20
577.0
 30
0.0
 40
10.0
  1
８
 50
0.0
 41
1.2
 51
0.0
  7
KANJI2
  0
LINE
  8
図枠
  6
CONTINUOUS
 62
     2
 10
220.0
 20
10.0
 11
220.0
 21
20.0
  0
LINE
  8
図枠
  6
CONTINUOUS
 62
     2
 10
120.0
 20
10.0
 11
120.0
 21
20.0
  0
TEXT
  8
図枠
  6
CONTINUOUS
 62
     6
 10
64.0
 20
7.0
 30
0.0
 40
10.0
  1
１
 50
0.0
 41
1.2
 51
0.0
  7
KANJI2
  0
TEXT
  8
図枠
  6
CONTINUOUS
 62
     6
 10
164.0
 20
7.0
 30
0.0
 40
10.0
  1
２
 50
0.0
 41
1.2
 51
0.0
  7
KANJI2
  0
TEXT
  8
図枠
  6
CONTINUOUS
 62
     6
 10
264.0
 20
7.0
 30
0.0
 40
10.0
  1
３
 50
0.0
 41
1.2
 51
0.0
  7
KANJI2
  0
LINE
  8
図枠
  6
CONTINUOUS
 62
     2
 10
720.0
 20
574.0
 11
720.0
 21
584.0
  0
LINE
  8
図枠
  6
CONTINUOUS
 62
     6
 10
50.0
 20
574.0
 11
50.0
 21
20.0
  0
LINE
  8
図枠
  6
CONTINUOUS
 62
     6
 10
420.0
 20
20.0
 11
420.0
 21
0.0
  0
LINE
  8
図枠
  6
CONTINUOUS
 62
     6
 10
320.0
 20
20.0
 11
320.0
 21
10.0
  0
LINE
  8
図枠
  6
CONTINUOUS
 62
     6
 10
340.0
 20
20.0
 11
340.0
 21
10.0
  0
LINE
  8
図枠
  6
CONTINUOUS
 62
     6
 10
360.0
 20
20.0
 11
360.0
 21
10.0
  0
LINE
  8
図枠
  6
CONTINUOUS
 62
     6
 10
380.0
 20
20.0
 11
380.0
 21
10.0
  0
LINE
  8
図枠
  6
CONTINUOUS
 62
     6
 10
400.0
 20
20.0
 11
400.0
 21
10.0
  0
LINE
  8
図枠
  6
CONTINUOUS
 62
     6
 10
50.0
 20
20.0
 11
820.0
 21
20.0
  0
LINE
  8
図枠
  6
CONTINUOUS
 62
     6
 10
520.0
 20
10.0
 11
520.0
 21
20.0
  0
LINE
  8
図枠
  6
CONTINUOUS
 62
     6
 10
500.0
 20
10.0
 11
500.0
 21
20.0
  0
LINE
  8
図枠
  6
CONTINUOUS
 62
     6
 10
480.0
 20
10.0
 11
480.0
 21
20.0
  0
LINE
  8
図枠
  6
CONTINUOUS
 62
     6
 10
460.0
 20
10.0
 11
460.0
 21
20.0
  0
LINE
  8
図枠
  6
CONTINUOUS
 62
     6
 10
440.0
 20
10.0
 11
440.0
 21
20.0
  0
LINE
  8
図枠
  6
CONTINUOUS
 62
     6
 10
320.0
 20
10.0
 11
520.0
 21
10.0
  0
LINE
  8
図枠
  6
CONTINUOUS
 62
     6
 10
50.0
 20
297.0
 11
0.0
 21
297.0
  0
LINE
  8
図枠
  6
CONTINUOUS
 62
     6
 10
420.0
 20
574.0
 11
420.0
 21
594.0
  0
LINE
  8
図枠
  6
CONTINUOUS
 62
     6
 10
820.0
 20
574.0
 11
50.0
 21
574.0
  0
LINE
  8
図枠
  6
CONTINUOUS
 62
     6
 10
820.0
 20
297.0
 11
840.0
 21
297.0
  0
LINE
  8
図枠
  6
CONTINUOUS
 62
     6
 10
820.0
 20
20.0
 11
820.0
 21
574.0
  0
TEXT
  8
図枠
  6
CONTINUOUS
 62
     6
 10
570.0
 20
7.0
 30
0.0
 40
10.0
  1
６
 50
0.0
 41
1.2
 51
0.0
  7
KANJI2
  0
TEXT
  8
図枠
  6
CONTINUOUS
 62
     6
 10
670.0
 20
7.0
 30
0.0
 40
10.0
  1
７
 50
0.0
 41
1.2
 51
0.0
  7
KANJI2
  0
TEXT
  8
図枠
  6
CONTINUOUS
 62
     6
 10
770.0
 20
7.0
 30
0.0
 40
10.0
  1
８
 50
0.0
 41
1.2
 51
0.0
  7
KANJI2
  0
LINE
  8
図枠
  6
CONTINUOUS
 62
     2
 10
620.0
 20
10.0
 11
620.0
 21
20.0
  0
LINE
  8
図枠
  6
CONTINUOUS
 62
     2
 10
720.0
 20
10.0
 11
720.0
 21
20.0
  0
LINE
  8
図枠
  6
CONTINUOUS
 62
     2
 10
482.0
 20
134.0
 11
482.0
 21
20.0
  0
LINE
  8
図枠
  6
CONTINUOUS
 62
     2
 10
496.0
 20
134.0
 11
496.0
 21
20.0
  0
LINE
  8
図枠
  6
CONTINUOUS
 62
     2
 10
510.0
 20
134.0
 11
510.0
 21
20.0
  0
LINE
  8
図枠
  6
CONTINUOUS
 62
     2
 10
524.0
 20
134.0
 11
524.0
 21
20.0
  0
LINE
  8
図枠
  6
CONTINUOUS
 62
     2
 10
646.0
 20
86.0
 11
646.0
 21
42.0
  0
LINE
  8
図枠
  6
CONTINUOUS
 62
     2
 10
678.0
 20
86.0
 11
678.0
 21
42.0
  0
LINE
  8
図枠
  6
CONTINUOUS
 62
     2
 10
598.0
 20
86.0
 11
598.0
 21
64.0
  0
LINE
  8
図枠
  6
CONTINUOUS
 62
     2
 10
538.0
 20
134.0
 11
538.0
 21
20.0
  0
LINE
  8
図枠
  6
CONTINUOUS
 62
     2
 10
582.0
 20
64.0
 11
582.0
 21
20.0
  0
LINE
  8
図枠
  6
CONTINUOUS
 62
     2
 10
614.0
 20
64.0
 11
614.0
 21
20.0
  0
LINE
  8
図枠
  6
CONTINUOUS
 62
     2
 10
710.0
 20
86.0
 11
710.0
 21
20.0
  0
LINE
  8
図枠
  6
LTYPE1
 62
     2
 10
626.0
 20
27.0
 11
634.0
 21
27.0
  0
LINE
  8
図枠
  6
LTYPE1
 62
     2
 10
634.0
 20
27.0
 11
634.0
 21
35.0
  0
LINE
  8
図枠
  6
LTYPE1
 62
     2
 10
634.0
 20
35.0
 11
626.0
 21
35.0
  0
LINE
  8
図枠
  6
LTYPE1
 62
     2
 10
626.0
 20
35.0
 11
626.0
 21
27.0
  0
TEXT
  8
図枠
  6
CONTINUOUS
 62
     4
 10
712.0
 20
94.0
 30
-1.0
 40
6.0
  1
１セット分
 50
0.0
 41
0.666666667
 51
0.0
  7
KANJI3
  0
TEXT
  8
図枠
  6
CONTINUOUS
 62
     4
 10
690.0
 20
94.0
 30
0.0
 40
6.0
  1
１台分
 50
0.0
 41
1.0
 51
0.0
  7
KANJI4
  0
TEXT
  8
図枠
  6
CONTINUOUS
 62
     4
 10
694.0
 20
88.0
 30
0.0
 40
6.0
  1
個数
 50
0.0
 41
1.0
 51
0.0
  7
KANJI4
  0
TEXT
  8
図枠
  6
CONTINUOUS
 62
     4
 10
714.0
 20
88.0
 30
0.0
 40
6.0
  1
個数
 50
0.0
 41
1.0
 51
0.0
  7
KANJI4
  0
TEXT
  8
図枠
  6
CONTINUOUS
 62
     4
 10
733.0
 20
90.0
 30
0.0
 40
8.0
  1
総数
 50
0.0
 41
0.875
 51
0.0
  7
KANJI0
  0
TEXT
  8
図枠
  6
CONTINUOUS
 62
     4
 10
546.3
 20
105.0
 30
0.6
 40
5.0
  1
氏名
 50
90.0
 41
1.0
 51
0.0
  7
KANJI5
  0
TEXT
  8
図枠
  6
CONTINUOUS
 62
     4
 10
546.3
 20
80.85
 30
2.0
 40
5.0
  1
年月日
 50
90.0
 41
1.0
 51
0.0
  7
KANJI6
  0
TEXT
  8
図枠
  6
CONTINUOUS
 62
     4
 10
546.3
 20
120.75
 30
0.6
 40
5.0
  1
承認
 50
90.0
 41
1.0
 51
0.0
  7
KANJI5
  0
TEXT
  8
図枠
  6
CONTINUOUS
 62
     4
 10
552.0
 20
79.0
 30
0.0
 40
5.0
  1
熱処理
 50
0.0
 41
1.0
 51
0.0
  7
KANJI7
  0
TEXT
  8
図枠
  6
CONTINUOUS
 62
     4
 10
600.0
 20
79.0
 30
0.0
 40
5.0
  1
表面処理
 50
0.0
 41
1.0
 51
0.0
  7
KANJI7
  0
TEXT
  8
図枠
  6
CONTINUOUS
 62
     4
 10
648.0
 20
79.0
 30
0.0
 40
5.0
  1
台数
 50
0.0
 41
1.0
 51
0.0
  7
KANJI7
  0
TEXT
  8
図枠
  6
CONTINUOUS
 62
     4
 10
680.0
 20
79.0
 30
0.0
 40
5.0
  1
作成日付
 50
0.0
 41
1.0
 51
0.0
  7
KANJI7
  0
TEXT
  8
図枠
  6
CONTINUOUS
 62
     4
 10
712.0
 20
79.0
 30
0.0
 40
5.0
  1
名称
 50
0.0
 41
1.0
 51
0.0
  7
KANJI7
  0
TEXT
  8
図枠
  6
CONTINUOUS
 62
     4
 10
552.0
 20
57.0
 30
0.0
 40
5.0
  1
尺度
 50
0.0
 41
1.0
 51
0.0
  7
KANJI7
  0
TEXT
  8
図枠
  6
CONTINUOUS
 62
     4
 10
584.0
 20
57.0
 30
0.0
 40
5.0
  1
承認
 50
0.0
 41
1.0
 51
0.0
  7
KANJI7
  0
TEXT
  8
図枠
  6
CONTINUOUS
 62
     4
 10
616.0
 20
57.0
 30
0.0
 40
5.0
  1
検図
 50
0.0
 41
1.0
 51
0.0
  7
KANJI7
  0
TEXT
  8
図枠
  6
CONTINUOUS
 62
     4
 10
648.0
 20
57.0
 30
0.0
 40
5.0
  1
設計
 50
0.0
 41
1.0
 51
0.0
  7
KANJI7
  0
TEXT
  8
図枠
  6
CONTINUOUS
 62
     4
 10
680.0
 20
57.0
 30
0.0
 40
5.0
  1
製図
 50
0.0
 41
1.0
 51
0.0
  7
KANJI7
  0
TEXT
  8
図枠
  6
CONTINUOUS
 62
     4
 10
712.0
 20
57.0
 30
0.0
 40
5.0
  1
機名
 50
0.0
 41
1.0
 51
0.0
  7
KANJI7
  0
TEXT
  8
図枠
  6
CONTINUOUS
 62
     4
 10
546.3
 20
21.75
 30
0.6
 40
5.0
  1
記号
 50
90.0
 41
1.0
 51
0.0
  7
KANJI5
  0
TEXT
  8
図枠
  6
CONTINUOUS
 62
     4
 10
712.0
 20
35.0
 30
0.0
 40
5.0
  1
図面番号
 50
0.0
 41
1.0
 51
0.0
  7
KANJI7
  0
TEXT
  8
図枠
  6
CONTINUOUS
 62
     4
 10
638.0
 20
28.5
 30
0.0
 40
5.0
  1
株式会社
 50
0.0
 41
1.0
 51
0.0
  7
KANJI7
  0
TEXT
  8
図枠
  6
CONTINUOUS
 62
     4
 10
662.0
 20
27.0
 30
0.0
 40
8.0
  1
昭和測器
 50
0.0
 41
1.125
 51
0.0
  7
KANJI8
  0
TEXT
  8
図枠
  6
CONTINUOUS
 62
     4
 10
546.3
 20
36.75
 30
0.6
 40
5.0
  1
来歴・改訂記事
 50
90.0
 41
1.0
 51
0.0
  7
KANJI5
  0
TEXT
  8
図枠
  6
CONTINUOUS
 62
     1
 10
556.0
 20
31.0
 30
0.0
 40
10.0
  1
第３
 50
0.0
 41
1.0
 51
0.0
  7
KANJI1
  0
TEXT
  8
図枠
  6
CONTINUOUS
 62
     1
 10
556.0
 20
21.0
 30
0.0
 40
10.0
  1
角法
 50
0.0
 41
1.0
 51
0.0
  7
KANJI1
  0
LINE
  8
図枠
  6
CONTINUOUS
 62
     2
 10
468.0
 20
134.0
 11
468.0
 21
20.0
  0
LINE
  8
図枠
  6
CONTINUOUS
 62
     2
 10
466.0
 20
34.0
 11
550.0
 21
34.0
  0
TEXT
  8
図枠
  6
CONTINUOUS
 62
     4
 10
652.0
 20
90.0
 30
0.0
 40
8.0
  1
材　　質
 50
0.0
 41
0.875
 51
0.0
  7
KANJI0
  0
TEXT
  8
図枠
  6
CONTINUOUS
 62
     4
 10
766.5
 20
90.0
 30
0.0
 40
8.0
  1
摘　　　要
 50
0.0
 41
0.875
 51
0.0
  7
KANJI0
  0
TEXT
  8
図枠
  6
CONTINUOUS
 62
     4
 10
553.0
 20
90.0
 30
0.0
 40
8.0
  1
番号
 50
0.0
 41
0.875
 51
0.0
  7
KANJI0
  0
TEXT
  8
図枠
  6
CONTINUOUS
 62
     4
 10
588.5
 20
90.0
 30
0.0
 40
8.0
  1
部　品　名
 50
0.0
 41
0.875
 51
0.0
  7
KANJI0
  0
CIRCLE
  8
図枠
  6
CONTINUOUS
 62
     6
 10
566.0
 20
52.0
 40
0.4
  0
CIRCLE
  8
図枠
  6
CONTINUOUS
 62
     6
 10
566.0
 20
47.0
 40
0.4
  0
TEXT
  8
図枠
  6
CONTINUOUS
 62
     6
 10
587.45
 20
24.05
 30
-2.0
 40
14.0
  1
Ａ３
 50
0.0
 41
0.857142857
 51
0.0
  7
KANJI9
  0
LINE
  8
図枠
  6
CONTINUOUS
 62
     2
 10
466.0
 20
134.0
 11
550.0
 21
134.0
  0
LINE
  8
図枠
  6
CONTINUOUS
 62
     2
 10
466.0
 20
118.0
 11
550.0
 21
118.0
  0
LINE
  8
図枠
  6
CONTINUOUS
 62
     2
 10
570.0
 20
102.0
 11
570.0
 21
86.0
  0
LINE
  8
図枠
  6
CONTINUOUS
 62
     2
 10
570.0
 20
134.0
 11
570.0
 21
102.0
  0
LINE
  8
図枠
  6
CONTINUOUS
 62
     2
 10
642.0
 20
102.0
 11
642.0
 21
86.0
  0
LINE
  8
図枠
  6
CONTINUOUS
 62
     2
 10
642.0
 20
134.0
 11
642.0
 21
102.0
  0
LINE
  8
図枠
  6
CONTINUOUS
 62
     2
 10
690.0
 20
102.0
 11
690.0
 21
86.0
  0
LINE
  8
図枠
  6
CONTINUOUS
 62
     2
 10
690.0
 20
134.0
 11
690.0
 21
102.0
  0
LINE
  8
図枠
  6
CONTINUOUS
 62
     2
 10
710.0
 20
102.0
 11
710.0
 21
86.0
  0
LINE
  8
図枠
  6
CONTINUOUS
 62
     2
 10
710.0
 20
134.0
 11
710.0
 21
102.0
  0
LINE
  8
図枠
  6
CONTINUOUS
 62
     2
 10
730.0
 20
102.0
 11
730.0
 21
86.0
  0
LINE
  8
図枠
  6
CONTINUOUS
 62
     2
 10
730.0
 20
134.0
 11
730.0
 21
102.0
  0
LINE
  8
図枠
  6
CONTINUOUS
 62
     2
 10
750.0
 20
102.0
 11
750.0
 21
86.0
  0
LINE
  8
図枠
  6
CONTINUOUS
 62
     2
 10
750.0
 20
134.0
 11
750.0
 21
102.0
  0
LINE
  8
図枠
  6
CONTINUOUS
 62
     2
 10
550.0
 20
102.0
 11
550.0
 21
20.0
  0
LINE
  8
図枠
  6
CONTINUOUS
 62
     2
 10
550.0
 20
134.0
 11
550.0
 21
102.0
  0
LINE
  8
図枠
  6
CONTINUOUS
 62
     2
 10
466.0
 20
78.0
 11
550.0
 21
78.0
  0
LINE
  8
図枠
  6
CONTINUOUS
 62
     2
 10
466.0
 20
102.0
 11
550.0
 21
102.0
  0
LINE
  8
図枠
  6
LTYPE2
 62
     2
 10
800.0
 20
42.0
 11
800.0
 21
20.0
  0
LINE
  8
図枠
  6
CONTINUOUS
 62
     2
 10
550.0
 20
134.0
 11
820.0
 21
134.0
  0
LINE
  8
図枠
  6
CONTINUOUS
 62
     2
 10
550.0
 20
118.0
 11
820.0
 21
118.0
  0
LINE
  8
図枠
  6
CONTINUOUS
 62
     2
 10
550.0
 20
102.0
 11
820.0
 21
102.0
  0
LINE
  8
図枠
  6
CONTINUOUS
 62
     2
 10
550.0
 20
86.0
 11
820.0
 21
86.0
  0
LINE
  8
図枠
  6
CONTINUOUS
 62
     2
 10
550.0
 20
64.0
 11
820.0
 21
64.0
  0
LINE
  8
図枠
  6
CONTINUOUS
 62
     2
 10
550.0
 20
42.0
 11
820.0
 21
42.0
  0
TEXT
  8
表題欄
  6
CONTINUOUS
 62
     5
 10
556.0
 20
46.0
 30
0.0
 40
8.0
  1
１
 50
0.0
 41
0.875
 51
0.0
  7
KANJI0
  0
TEXT
  8
表題欄
  6
CONTINUOUS
 62
     5
 10
681.0
 20
72.0
 30
-1.0
 40
6.0
  1
２０１７．
 50
0.0
 41
0.833333333
 51
0.0
  7
KANJI10
  0
TEXT
  8
表題欄
  6
CONTINUOUS
 62
     5
 10
686.0
 20
66.0
 30
-1.0
 40
6.0
  1
０７．１２
 50
0.0
 41
0.833333333
 51
0.0
  7
KANJI10
  0
TEXT
  8
表題欄
  6
CONTINUOUS
 62
     5
 10
754.8
 20
68.0
 30
0.2
 40
8.0
  1
外観図
 50
0.0
 41
0.875
 51
0.0
  7
KANJI11
  0
TEXT
  8
表題欄
  6
CONTINUOUS
 62
     5
 10
722.4
 20
46.0
 30
0.2
 40
8.0
  1
ＴＰ－□Ｎ
 50
0.0
 41
0.875
 51
0.0
  7
KANJI11
  0
TEXT
  8
寸法線
  6
CONTINUOUS
 62
     5
 10
726.0
 20
179.6
 30
0.0
 40
8.0
  1
時計回り　（＋）
 50
0.0
 41
0.875
 51
0.0
  7
KANJI0
  0
TEXT
  8
寸法線
  6
CONTINUOUS
 62
     5
 10
726.0
 20
169.6
 30
0.0
 40
8.0
  1
反時計回り（－）
 50
0.0
 41
0.875
 51
0.0
  7
KANJI0
  0
LINE
  8
寸法線
  6
CONTINUOUS
 62
     2
 10
736.0
 20
189.6
 11
764.0
 21
189.6
  0
TEXT
  8
寸法線
  6
CONTINUOUS
 62
     5
 10
736.0
 20
191.6
 30
0.0
 40
8.0
  1
負荷方向
 50
0.0
 41
0.875
 51
0.0
  7
KANJI0
  0
LINE
  8
0
  6
CONTINUOUS
 62
     1
 10
360.0
 20
477.5
 11
325.0
 21
477.5
  0
LINE
  8
0
  6
CONTINUOUS
 62
     1
 10
520.0
 20
477.5
 11
485.0
 21
477.5
  0
LINE
  8
0
  6
CONTINUOUS
 62
     1
 10
325.0
 20
432.5
 11
321.0
 21
432.5
  0
LINE
  8
0
  6
CONTINUOUS
 62
     1
 10
520.0
 20
432.5
 11
515.0
 21
432.5
  0
LINE
  8
0
  6
CONTINUOUS
 62
     1
 10
325.0
 20
262.5
 11
360.0
 21
262.5
  0
LINE
  8
0
  6
CONTINUOUS
 62
     1
 10
485.0
 20
262.5
 11
520.0
 21
262.5
  0
LINE
  8
0
  6
CONTINUOUS
 62
     1
 10
325.0
 20
477.5
 11
325.0
 21
262.5
  0
LINE
  8
0
  6
CONTINUOUS
 62
     1
 10
360.0
 20
262.5
 11
360.0
 21
477.5
  0
LINE
  8
0
  6
CONTINUOUS
 62
     1
 10
485.0
 20
477.5
 11
485.0
 21
262.5
  0
LINE
  8
0
  6
CONTINUOUS
 62
     1
 10
520.0
 20
262.5
 11
520.0
 21
477.5
  0
LINE
  8
0
  6
CONTINUOUS
 62
     1
 10
321.0
 20
307.5
 11
325.0
 21
307.5
  0
LINE
  8
0
  6
CONTINUOUS
 62
     1
 10
515.0
 20
307.5
 11
520.0
 21
307.5
  0
LINE
  8
0
  6
CONTINUOUS
 62
     1
 10
321.0
 20
432.5
 11
321.0
 21
307.5
  0
LINE
  8
0
  6
CONTINUOUS
 62
     1
 10
515.0
 20
432.5
 11
515.0
 21
307.5
  0
ARC
  8
0
  6
CONTINUOUS
 62
     1
 10
365.0
 20
425.5
 40
5.0
 50
180.0
 51
270.0
  0
ARC
  8
0
  6
CONTINUOUS
 62
     1
 10
480.0
 20
425.5
 40
5.0
 50
270.0
 51
0.0
  0
ARC
  8
0
  6
CONTINUOUS
 62
     1
 10
365.0
 20
314.5
 40
5.0
 50
90.0
 51
180.0
  0
ARC
  8
0
  6
CONTINUOUS
 62
     1
 10
480.0
 20
314.5
 40
5.0
 50
0.0
 51
90.0
  0
LINE
  8
0
  6
CONTINUOUS
 62
     1
 10
365.0
 20
319.5
 11
479.0
 21
319.5
  0
LINE
  8
0
  6
CONTINUOUS
 62
     1
 10
365.0
 20
420.5
 11
365.0
 21
319.5
  0
LINE
  8
0
  6
CONTINUOUS
 62
     1
 10
480.0
 20
319.5
 11
480.0
 21
420.5
  0
LINE
  8
0
  6
CONTINUOUS
 62
     1
 10
479.0
 20
319.5
 11
479.0
 21
420.5
  0
LINE
  8
0
  6
CONTINUOUS
 62
     1
 10
479.0
 20
414.0
 11
480.0
 21
414.0
  0
LINE
  8
0
  6
CONTINUOUS
 62
     1
 10
479.0
 20
326.0
 11
480.0
 21
326.0
  0
LINE
  8
0
  6
CONTINUOUS
 62
     1
 10
411.5
 20
430.5
 11
433.5
 21
430.5
  0
LINE
  8
0
  6
CONTINUOUS
 62
     1
 10
433.5
 20
430.5
 11
433.5
 21
418.726495452
  0
LINE
  8
0
  6
CONTINUOUS
 62
     1
 10
411.5
 20
430.5
 11
411.5
 21
418.726495452
  0
LINE
  8
0
  6
CONTINUOUS
 62
     1
 10
412.5
 20
418.726495452
 11
432.5
 21
418.726495452
  0
LINE
  8
0
  6
CONTINUOUS
 62
     1
 10
411.5
 20
420.5
 11
365.0
 21
420.5
  0
LINE
  8
0
  6
CONTINUOUS
 62
     1
 10
414.5
 20
443.0
 11
430.5
 21
443.0
  0
LINE
  8
0
  6
CONTINUOUS
 62
     1
 10
412.0
 20
432.0
 11
433.0
 21
432.0
  0
LINE
  8
0
  6
CONTINUOUS
 62
     1
 10
412.0
 20
430.5
 11
433.0
 21
430.5
  0
LINE
  8
0
  6
CONTINUOUS
 62
     1
 10
433.0
 20
432.0
 11
433.0
 21
430.5
  0
LINE
  8
0
  6
CONTINUOUS
 62
     1
 10
412.0
 20
432.0
 11
412.0
 21
430.5
  0
ARC
  8
0
  6
CONTINUOUS
 62
     1
 10
414.5
 20
431.8975
 40
2.1025
 50
2.794362055
 51
177.205637945
  0
ARC
  8
0
  6
CONTINUOUS
 62
     1
 10
430.5
 20
431.8975
 40
2.1025
 50
2.794362055
 51
177.205637945
  0
LINE
  8
0
  6
CONTINUOUS
 62
     1
 10
414.5
 20
443.0
 11
414.5
 21
434.0
  0
LINE
  8
0
  6
CONTINUOUS
 62
     1
 10
430.5
 20
443.0
 11
430.5
 21
434.0
  0
LINE
  8
0
  6
CONTINUOUS
 62
     2
 10
414.5
 20
434.0
 11
414.5
 21
429.0
  0
LINE
  8
0
  6
CONTINUOUS
 62
     2
 10
430.5
 20
434.0
 11
430.5
 21
429.0
  0
LINE
  8
0
  6
CONTINUOUS
 62
     1
 10
479.0
 20
420.5
 11
433.5
 21
420.5
  0
LINE
  8
0
  6
LTYPE3
 62
     2
 10
365.0
 20
370.0
 11
479.0
 21
370.0
  0
LINE
  8
0
  6
LTYPE3
 62
     2
 10
365.0
 20
370.0
 11
479.0
 21
370.0
  0
LINE
  8
0
  6
LTYPE2
 62
     2
 10
345.8
 20
477.5
 11
345.8
 21
457.5
  0
LINE
  8
0
  6
LTYPE2
 62
     2
 10
342.5
 20
455.6
 11
345.8
 21
457.5
  0
LINE
  8
0
  6
LTYPE2
 62
     2
 10
346.5
 20
477.5
 11
346.5
 21
461.5
  0
LINE
  8
0
  6
LTYPE2
 62
     2
 10
345.8
 20
460.3
 11
346.5
 21
461.5
  0
POLYLINE
  8
0
  6
LTYPE2
 62
     2
 66
     1
  0
VERTEX
  8
0
  6
LTYPE2
 62
     2
 10
339.2
 20
477.5
  0
VERTEX
  8
0
  6
LTYPE2
 62
     2
 10
339.2
 20
457.5
  0
VERTEX
  8
0
  6
LTYPE2
 62
     2
 10
342.5
 20
455.6
  0
SEQEND
  0
LINE
  8
0
  6
LTYPE2
 62
     2
 10
338.5
 20
477.5
 11
338.5
 21
461.5
  0
LINE
  8
0
  6
LTYPE2
 62
     2
 10
339.2
 20
460.3
 11
338.5
 21
461.5
  0
LINE
  8
0
  6
LTYPE2
 62
     2
 10
339.2
 20
457.5
 11
345.8
 21
457.5
  0
LINE
  8
0
  6
LTYPE2
 62
     2
 10
338.5
 20
461.5
 11
346.5
 21
461.5
  0
LINE
  8
0
  6
LTYPE2
 62
     2
 10
505.8
 20
477.5
 11
505.8
 21
457.5
  0
LINE
  8
0
  6
LTYPE2
 62
     2
 10
502.5
 20
455.6
 11
505.8
 21
457.5
  0
LINE
  8
0
  6
LTYPE2
 62
     2
 10
506.5
 20
477.5
 11
506.5
 21
461.5
  0
LINE
  8
0
  6
LTYPE2
 62
     2
 10
505.8
 20
460.3
 11
506.5
 21
461.5
  0
POLYLINE
  8
0
  6
LTYPE2
 62
     2
 66
     1
  0
VERTEX
  8
0
  6
LTYPE2
 62
     2
 10
499.2
 20
477.5
  0
VERTEX
  8
0
  6
LTYPE2
 62
     2
 10
499.2
 20
457.5
  0
VERTEX
  8
0
  6
LTYPE2
 62
     2
 10
502.5
 20
455.6
  0
SEQEND
  0
LINE
  8
0
  6
LTYPE2
 62
     2
 10
498.5
 20
477.5
 11
498.5
 21
461.5
  0
LINE
  8
0
  6
LTYPE2
 62
     2
 10
499.2
 20
460.3
 11
498.5
 21
461.5
  0
LINE
  8
0
  6
LTYPE2
 62
     2
 10
499.2
 20
457.5
 11
505.8
 21
457.5
  0
LINE
  8
0
  6
LTYPE2
 62
     2
 10
498.5
 20
461.5
 11
506.5
 21
461.5
  0
LINE
  8
0
  6
CONTINUOUS
 62
     1
 10
365.0
 20
370.0
 11
479.0
 21
370.0
  0
LINE
  8
0
  6
LTYPE4
 62
     2
 10
408.0
 20
361.230767028
 11
397.0
 21
361.230767028
  0
LINE
  8
0
  6
LTYPE4
 62
     2
 10
402.5
 20
366.730767028
 11
402.5
 21
355.730767028
  0
CIRCLE
  8
0
  6
CONTINUOUS
 62
     1
 10
402.5
 20
361.230767028
 40
3.5
  0
LINE
  8
0
  6
CONTINUOUS
 62
     1
 10
401.6
 20
359.730767028
 11
400.8
 21
361.230767028
  0
LINE
  8
0
  6
CONTINUOUS
 62
     1
 10
400.8
 20
361.230767028
 11
401.6
 21
362.730767028
  0
LINE
  8
0
  6
CONTINUOUS
 62
     1
 10
401.6
 20
362.730767028
 11
403.4
 21
362.730767028
  0
LINE
  8
0
  6
CONTINUOUS
 62
     1
 10
403.4
 20
362.730767028
 11
404.2
 21
361.230767028
  0
LINE
  8
0
  6
CONTINUOUS
 62
     1
 10
404.2
 20
361.230767028
 11
403.4
 21
359.730767028
  0
LINE
  8
0
  6
CONTINUOUS
 62
     1
 10
403.4
 20
359.730767028
 11
401.6
 21
359.730767028
  0
CIRCLE
  8
0
  6
CONTINUOUS
 62
     1
 10
402.5
 20
361.230767028
 40
4.0
  0
LINE
  8
0
  6
LTYPE4
 62
     2
 10
448.0
 20
361.230767028
 11
437.0
 21
361.230767028
  0
LINE
  8
0
  6
LTYPE4
 62
     2
 10
442.5
 20
366.730767028
 11
442.5
 21
355.730767028
  0
CIRCLE
  8
0
  6
CONTINUOUS
 62
     1
 10
442.5
 20
361.230767028
 40
3.5
  0
LINE
  8
0
  6
CONTINUOUS
 62
     1
 10
441.6
 20
359.730767028
 11
440.8
 21
361.230767028
  0
LINE
  8
0
  6
CONTINUOUS
 62
     1
 10
440.8
 20
361.230767028
 11
441.6
 21
362.730767028
  0
LINE
  8
0
  6
CONTINUOUS
 62
     1
 10
441.6
 20
362.730767028
 11
443.4
 21
362.730767028
  0
LINE
  8
0
  6
CONTINUOUS
 62
     1
 10
443.4
 20
362.730767028
 11
444.2
 21
361.230767028
  0
LINE
  8
0
  6
CONTINUOUS
 62
     1
 10
444.2
 20
361.230767028
 11
443.4
 21
359.730767028
  0
LINE
  8
0
  6
CONTINUOUS
 62
     1
 10
443.4
 20
359.730767028
 11
441.6
 21
359.730767028
  0
CIRCLE
  8
0
  6
CONTINUOUS
 62
     1
 10
442.5
 20
361.230767028
 40
4.0
  0
LINE
  8
0
  6
LTYPE3
 62
     2
 10
422.5
 20
408.726495452
 11
422.5
 21
453.0
  0
LINE
  8
0
  6
LTYPE3
 62
     2
 10
530.0
 20
370.0
 11
311.0
 21
370.0
  0
LINE
  8
0
  6
LTYPE4
 62
     2
 10
342.5
 20
445.6
 11
342.5
 21
487.5
  0
LINE
  8
0
  6
LTYPE4
 62
     2
 10
502.5
 20
445.6
 11
502.5
 21
487.5
  0
LINE
  8
寸法線
  6
CONTINUOUS
 62
     2
 10
319.0
 20
432.5
 11
299.0
 21
432.5
  0
LINE
  8
寸法線
  6
CONTINUOUS
 62
     2
 10
301.0
 20
432.5
 11
299.705904774
 21
427.670370869
  0
LINE
  8
寸法線
  6
CONTINUOUS
 62
     2
 10
301.0
 20
432.5
 11
302.294095226
 21
427.670370869
  0
LINE
  8
寸法線
  6
CONTINUOUS
 62
     2
 10
301.0
 20
432.5
 11
301.0
 21
307.5
  0
LINE
  8
寸法線
  6
CONTINUOUS
 62
     2
 10
301.0
 20
307.5
 11
302.294095226
 21
312.329629131
  0
LINE
  8
寸法線
  6
CONTINUOUS
 62
     2
 10
301.0
 20
307.5
 11
299.705904774
 21
312.329629131
  0
LINE
  8
寸法線
  6
CONTINUOUS
 62
     2
 10
319.0
 20
307.5
 11
299.0
 21
307.5
  0
TEXT
  8
寸法線
  6
CONTINUOUS
 62
     5
 10
299.0
 20
348.5
 30
0.2
 40
8.0
  1
φ１２５ｇ６
 50
90.0
 41
0.875
 51
0.0
  7
KANJI11
  0
LINE
  8
寸法線
  6
CONTINUOUS
 62
     2
 10
522.0
 20
432.5
 11
552.0
 21
432.5
  0
LINE
  8
寸法線
  6
CONTINUOUS
 62
     2
 10
550.0
 20
432.5
 11
548.705904774
 21
427.670370869
  0
LINE
  8
寸法線
  6
CONTINUOUS
 62
     2
 10
550.0
 20
432.5
 11
551.294095226
 21
427.670370869
  0
LINE
  8
寸法線
  6
CONTINUOUS
 62
     2
 10
550.0
 20
432.5
 11
550.0
 21
307.5
  0
LINE
  8
寸法線
  6
CONTINUOUS
 62
     2
 10
550.0
 20
307.5
 11
551.294095226
 21
312.329629131
  0
LINE
  8
寸法線
  6
CONTINUOUS
 62
     2
 10
550.0
 20
307.5
 11
548.705904774
 21
312.329629131
  0
LINE
  8
寸法線
  6
CONTINUOUS
 62
     2
 10
522.0
 20
307.5
 11
552.0
 21
307.5
  0
TEXT
  8
寸法線
  6
CONTINUOUS
 62
     5
 10
548.0
 20
348.5
 30
0.2
 40
8.0
  1
φ１２５Ｈ７
 50
90.0
 41
0.875
 51
0.0
  7
KANJI11
  0
LINE
  8
寸法線
  6
CONTINUOUS
 62
     2
 10
522.0
 20
262.5
 11
572.0
 21
262.5
  0
LINE
  8
寸法線
  6
CONTINUOUS
 62
     2
 10
570.0
 20
262.5
 11
571.294095226
 21
267.329629131
  0
LINE
  8
寸法線
  6
CONTINUOUS
 62
     2
 10
570.0
 20
262.5
 11
568.705904774
 21
267.329629131
  0
LINE
  8
寸法線
  6
CONTINUOUS
 62
     2
 10
570.0
 20
262.5
 11
570.0
 21
477.5
  0
LINE
  8
寸法線
  6
CONTINUOUS
 62
     2
 10
570.0
 20
477.5
 11
568.705904774
 21
472.670370869
  0
LINE
  8
寸法線
  6
CONTINUOUS
 62
     2
 10
570.0
 20
477.5
 11
571.294095226
 21
472.670370869
  0
LINE
  8
寸法線
  6
CONTINUOUS
 62
     2
 10
522.0
 20
477.5
 11
572.0
 21
477.5
  0
TEXT
  8
寸法線
  6
CONTINUOUS
 62
     5
 10
568.0
 20
355.7
 30
0.2
 40
8.0
  1
φ２１５
 50
90.0
 41
0.875
 51
0.0
  7
KANJI11
  0
POLYLINE
  8
0
  6
CONTINUOUS
 62
     2
 66
     1
  0
VERTEX
  8
0
  6
CONTINUOUS
 62
     2
 10
520.0
 20
445.0
  0
VERTEX
  8
0
  6
CONTINUOUS
 62
     2
 10
517.0
 20
443.452
  0
VERTEX
  8
0
  6
CONTINUOUS
 62
     2
 10
514.1
 20
441.816
  0
VERTEX
  8
0
  6
CONTINUOUS
 62
     2
 10
511.4
 20
440.004
  0
VERTEX
  8
0
  6
CONTINUOUS
 62
     2
 10
509.0
 20
437.928
  0
VERTEX
  8
0
  6
CONTINUOUS
 62
     2
 10
507.0
 20
435.5
  0
VERTEX
  8
0
  6
CONTINUOUS
 62
     2
 10
506.332
 20
432.264
  0
VERTEX
  8
0
  6
CONTINUOUS
 62
     2
 10
506.056
 20
428.592
  0
VERTEX
  8
0
  6
CONTINUOUS
 62
     2
 10
506.064
 20
424.488
  0
VERTEX
  8
0
  6
CONTINUOUS
 62
     2
 10
506.248
 20
419.956
  0
VERTEX
  8
0
  6
CONTINUOUS
 62
     2
 10
506.5
 20
415.0
  0
VERTEX
  8
0
  6
CONTINUOUS
 62
     2
 10
506.28
 20
409.384
  0
VERTEX
  8
0
  6
CONTINUOUS
 62
     2
 10
506.02
 20
403.412
  0
VERTEX
  8
0
  6
CONTINUOUS
 62
     2
 10
505.72
 20
397.148
  0
VERTEX
  8
0
  6
CONTINUOUS
 62
     2
 10
505.38
 20
390.656
  0
VERTEX
  8
0
  6
CONTINUOUS
 62
     2
 10
505.0
 20
384.0
  0
VERTEX
  8
0
  6
CONTINUOUS
 62
     2
 10
504.388
 20
377.212
  0
VERTEX
  8
0
  6
CONTINUOUS
 62
     2
 10
503.784
 20
370.396
  0
VERTEX
  8
0
  6
CONTINUOUS
 62
     2
 10
503.236
 20
363.624
  0
VERTEX
  8
0
  6
CONTINUOUS
 62
     2
 10
502.792
 20
356.968
  0
VERTEX
  8
0
  6
CONTINUOUS
 62
     2
 10
502.5
 20
350.5
  0
VERTEX
  8
0
  6
CONTINUOUS
 62
     2
 10
502.728
 20
344.388
  0
VERTEX
  8
0
  6
CONTINUOUS
 62
     2
 10
503.124
 20
338.584
  0
VERTEX
  8
0
  6
CONTINUOUS
 62
     2
 10
503.656
 20
333.136
  0
VERTEX
  8
0
  6
CONTINUOUS
 62
     2
 10
504.292
 20
328.092
  0
VERTEX
  8
0
  6
CONTINUOUS
 62
     2
 10
505.0
 20
323.5
  0
VERTEX
  8
0
  6
CONTINUOUS
 62
     2
 10
505.396
 20
319.984
  0
VERTEX
  8
0
  6
CONTINUOUS
 62
     2
 10
505.888
 20
316.872
  0
VERTEX
  8
0
  6
CONTINUOUS
 62
     2
 10
506.532
 20
314.068
  0
VERTEX
  8
0
  6
CONTINUOUS
 62
     2
 10
507.384
 20
311.476
  0
VERTEX
  8
0
  6
CONTINUOUS
 62
     2
 10
508.5
 20
309.0
  0
VERTEX
  8
0
  6
CONTINUOUS
 62
     2
 10
510.416
 20
306.176
  0
VERTEX
  8
0
  6
CONTINUOUS
 62
     2
 10
512.588
 20
303.368
  0
VERTEX
  8
0
  6
CONTINUOUS
 62
     2
 10
514.952
 20
300.572
  0
VERTEX
  8
0
  6
CONTINUOUS
 62
     2
 10
517.444
 20
297.784
  0
VERTEX
  8
0
  6
CONTINUOUS
 62
     2
 10
520.0
 20
295.0
  0
SEQEND
  0
LINE
  8
寸法線
  6
CONTINUOUS
 62
     2
 10
515.0
 20
434.5
 11
515.0
 21
499.5
  0
LINE
  8
寸法線
  6
CONTINUOUS
 62
     2
 10
515.0
 20
497.5
 11
510.170370869
 21
498.794095226
  0
LINE
  8
寸法線
  6
CONTINUOUS
 62
     2
 10
515.0
 20
497.5
 11
510.170370869
 21
496.205904774
  0
LINE
  8
寸法線
  6
CONTINUOUS
 62
     2
 10
507.5
 20
497.5
 11
515.0
 21
497.5
  0
LINE
  8
寸法線
  6
CONTINUOUS
 62
     2
 10
515.0
 20
497.5
 11
520.0
 21
497.5
  0
LINE
  8
寸法線
  6
CONTINUOUS
 62
     2
 10
520.0
 20
497.5
 11
527.5
 21
497.5
  0
LINE
  8
寸法線
  6
CONTINUOUS
 62
     2
 10
520.0
 20
497.5
 11
524.829629131
 21
496.205904774
  0
LINE
  8
寸法線
  6
CONTINUOUS
 62
     2
 10
520.0
 20
497.5
 11
524.829629131
 21
498.794095226
  0
LINE
  8
寸法線
  6
CONTINUOUS
 62
     2
 10
520.0
 20
479.5
 11
520.0
 21
499.5
  0
TEXT
  8
寸法線
  6
CONTINUOUS
 62
     5
 10
514.0
 20
499.5
 30
0.2
 40
8.0
  1
５
 50
0.0
 41
0.875
 51
0.0
  7
KANJI11
  0
LINE
  8
寸法線
  6
CONTINUOUS
 62
     2
 10
321.0
 20
305.5
 11
321.0
 21
230.5
  0
LINE
  8
寸法線
  6
CONTINUOUS
 62
     2
 10
321.0
 20
232.5
 11
316.170370869
 21
233.794095226
  0
LINE
  8
寸法線
  6
CONTINUOUS
 62
     2
 10
321.0
 20
232.5
 11
316.170370869
 21
231.205904774
  0
LINE
  8
寸法線
  6
CONTINUOUS
 62
     2
 10
306.5
 20
232.5
 11
321.0
 21
232.5
  0
LINE
  8
寸法線
  6
CONTINUOUS
 62
     2
 10
321.0
 20
232.5
 11
325.0
 21
232.5
  0
TEXT
  8
寸法線
  6
CONTINUOUS
 62
     5
 10
306.5
 20
234.5
 30
0.2
 40
8.0
  1
４
 50
0.0
 41
0.875
 51
0.0
  7
KANJI11
  0
LINE
  8
寸法線
  6
CONTINUOUS
 62
     2
 10
325.0
 20
260.5
 11
325.0
 21
230.5
  0
LINE
  8
寸法線
  6
CONTINUOUS
 62
     2
 10
325.0
 20
232.5
 11
329.829629131
 21
231.205904774
  0
LINE
  8
寸法線
  6
CONTINUOUS
 62
     2
 10
325.0
 20
232.5
 11
329.829629131
 21
233.794095226
  0
LINE
  8
寸法線
  6
CONTINUOUS
 62
     2
 10
325.0
 20
232.5
 11
360.0
 21
232.5
  0
LINE
  8
寸法線
  6
CONTINUOUS
 62
     2
 10
360.0
 20
232.5
 11
355.170370869
 21
233.794095226
  0
LINE
  8
寸法線
  6
CONTINUOUS
 62
     2
 10
360.0
 20
232.5
 11
355.170370869
 21
231.205904774
  0
LINE
  8
寸法線
  6
CONTINUOUS
 62
     2
 10
360.0
 20
260.5
 11
360.0
 21
230.5
  0
TEXT
  8
寸法線
  6
CONTINUOUS
 62
     5
 10
335.4
 20
234.5
 30
0.2
 40
8.0
  1
３５
 50
0.0
 41
0.875
 51
0.0
  7
KANJI11
  0
LINE
  8
寸法線
  6
CONTINUOUS
 62
     2
 10
360.0
 20
232.5
 11
364.829629131
 21
231.205904774
  0
LINE
  8
寸法線
  6
CONTINUOUS
 62
     2
 10
360.0
 20
232.5
 11
364.829629131
 21
233.794095226
  0
LINE
  8
寸法線
  6
CONTINUOUS
 62
     2
 10
360.0
 20
232.5
 11
485.0
 21
232.5
  0
LINE
  8
寸法線
  6
CONTINUOUS
 62
     2
 10
485.0
 20
232.5
 11
480.170370869
 21
233.794095226
  0
LINE
  8
寸法線
  6
CONTINUOUS
 62
     2
 10
485.0
 20
232.5
 11
480.170370869
 21
231.205904774
  0
LINE
  8
寸法線
  6
CONTINUOUS
 62
     2
 10
485.0
 20
260.5
 11
485.0
 21
230.5
  0
TEXT
  8
寸法線
  6
CONTINUOUS
 62
     5
 10
411.8
 20
234.5
 30
0.2
 40
8.0
  1
１２５
 50
0.0
 41
0.875
 51
0.0
  7
KANJI11
  0
LINE
  8
寸法線
  6
CONTINUOUS
 62
     2
 10
485.0
 20
232.5
 11
489.829629131
 21
231.205904774
  0
LINE
  8
寸法線
  6
CONTINUOUS
 62
     2
 10
485.0
 20
232.5
 11
489.829629131
 21
233.794095226
  0
LINE
  8
寸法線
  6
CONTINUOUS
 62
     2
 10
485.0
 20
232.5
 11
520.0
 21
232.5
  0
LINE
  8
寸法線
  6
CONTINUOUS
 62
     2
 10
520.0
 20
232.5
 11
515.170370869
 21
233.794095226
  0
LINE
  8
寸法線
  6
CONTINUOUS
 62
     2
 10
520.0
 20
232.5
 11
515.170370869
 21
231.205904774
  0
LINE
  8
寸法線
  6
CONTINUOUS
 62
     2
 10
520.0
 20
260.5
 11
520.0
 21
230.5
  0
TEXT
  8
寸法線
  6
CONTINUOUS
 62
     5
 10
495.4
 20
234.5
 30
0.2
 40
8.0
  1
３５
 50
0.0
 41
0.875
 51
0.0
  7
KANJI11
  0
LINE
  8
寸法線
  6
CONTINUOUS
 62
     2
 10
520.0
 20
230.5
 11
520.0
 21
210.5
  0
LINE
  8
寸法線
  6
CONTINUOUS
 62
     2
 10
520.0
 20
212.5
 11
515.170370869
 21
213.794095226
  0
LINE
  8
寸法線
  6
CONTINUOUS
 62
     2
 10
520.0
 20
212.5
 11
515.170370869
 21
211.205904774
  0
LINE
  8
寸法線
  6
CONTINUOUS
 62
     2
 10
520.0
 20
212.5
 11
321.0
 21
212.5
  0
LINE
  8
寸法線
  6
CONTINUOUS
 62
     2
 10
321.0
 20
212.5
 11
325.829629131
 21
211.205904774
  0
LINE
  8
寸法線
  6
CONTINUOUS
 62
     2
 10
321.0
 20
212.5
 11
325.829629131
 21
213.794095226
  0
LINE
  8
寸法線
  6
CONTINUOUS
 62
     2
 10
321.0
 20
230.5
 11
321.0
 21
210.5
  0
TEXT
  8
寸法線
  6
CONTINUOUS
 62
     5
 10
409.8
 20
214.5
 30
0.2
 40
8.0
  1
１９９
 50
0.0
 41
0.875
 51
0.0
  7
KANJI11
  0
LINE
  8
寸法線
  6
CONTINUOUS
 62
     2
 10
470.0
 20
420.5
 11
468.705904774
 21
415.670370869
  0
LINE
  8
寸法線
  6
CONTINUOUS
 62
     2
 10
470.0
 20
420.5
 11
471.294095226
 21
415.670370869
  0
LINE
  8
寸法線
  6
CONTINUOUS
 62
     2
 10
470.0
 20
420.5
 11
470.0
 21
319.5
  0
LINE
  8
寸法線
  6
CONTINUOUS
 62
     2
 10
470.0
 20
319.5
 11
471.294095226
 21
324.329629131
  0
LINE
  8
寸法線
  6
CONTINUOUS
 62
     2
 10
470.0
 20
319.5
 11
468.705904774
 21
324.329629131
  0
TEXT
  8
寸法線
  6
CONTINUOUS
 62
     5
 10
468.0
 20
372.0
 30
0.2
 40
8.0
  1
φ１０１
 50
90.0
 41
0.875
 51
0.0
  7
KANJI11
  0
ARC
  8
0
  6
CONTINUOUS
 62
     1
 10
140.0
 20
370.0
 40
107.5
 50
270.0
 51
90.0
  0
ARC
  8
0
  6
CONTINUOUS
 62
     1
 10
140.0
 20
370.0
 40
62.5
 50
270.0
 51
90.0
  0
ARC
  8
0
  6
LTYPE3
 62
     2
 10
140.0
 20
370.0
 40
90.0
 50
270.0
 51
90.0
  0
LINE
  8
0
  6
LTYPE3
 62
     2
 10
140.0
 20
487.5
 11
140.0
 21
252.5
  0
CIRCLE
  8
0
  6
CONTINUOUS
 62
     1
 10
163.293714059
 20
456.933324366
 40
9.0
  0
LINE
  8
0
  6
LTYPE3
 62
     2
 10
166.528952123
 20
469.007397195
 11
160.058475995
 21
444.859251537
  0
CIRCLE
  8
0
  6
CONTINUOUS
 62
     1
 10
203.639610307
 20
433.639610307
 40
9.0
  0
LINE
  8
0
  6
LTYPE3
 62
     2
 10
212.478445072
 20
442.478445072
 11
194.800775542
 21
424.800775542
  0
CIRCLE
  8
0
  6
CONTINUOUS
 62
     1
 10
226.933324366
 20
393.293714059
 40
9.0
  0
LINE
  8
0
  6
LTYPE3
 62
     2
 10
239.007397195
 20
396.528952123
 11
214.859251537
 21
390.058475995
  0
CIRCLE
  8
0
  6
CONTINUOUS
 62
     1
 10
226.933324366
 20
346.706285941
 40
9.0
  0
LINE
  8
0
  6
LTYPE3
 62
     2
 10
239.007397195
 20
343.471047877
 11
214.859251537
 21
349.941524005
  0
CIRCLE
  8
0
  6
CONTINUOUS
 62
     1
 10
203.639610307
 20
306.360389693
 40
9.0
  0
LINE
  8
0
  6
LTYPE3
 62
     2
 10
212.478445072
 20
297.521554928
 11
194.800775542
 21
315.199224458
  0
CIRCLE
  8
0
  6
CONTINUOUS
 62
     1
 10
163.293714059
 20
283.066675634
 40
9.0
  0
LINE
  8
0
  6
LTYPE3
 62
     2
 10
166.528952123
 20
270.992602805
 11
160.058475995
 21
295.140748463
  0
LINE
  8
0
  6
LTYPE3
 62
     2
 10
130.0
 20
370.0
 11
257.5
 21
370.0
  0
LINE
  8
寸法線
  6
CONTINUOUS
 62
     2
 10
217.942286341
 20
415.0
 11
213.112657209
 21
413.705904774
  0
LINE
  8
寸法線
  6
CONTINUOUS
 62
     2
 10
217.942286341
 20
415.0
 11
214.406752435
 21
411.464466094
  0
TEXT
  8
寸法線
  6
CONTINUOUS
 62
     5
 10
82.275336052
 20
338.982050808
 30
0.2
 40
8.0
  1
Ｐ．Ｃ．Ｄ．１８０
 50
30.0
 41
0.875
 51
0.0
  7
KANJI11
  0
LINE
  8
寸法線
  6
CONTINUOUS
 62
     2
 10
83.275336052
 20
337.25
 11
217.942286341
 21
415.0
  0
ARC
  8
0
  6
CONTINUOUS
 62
     1
 10
730.0
 20
370.0
 40
107.5
 50
90.0
 51
270.0
  0
ARC
  8
0
  6
CONTINUOUS
 62
     1
 10
730.0
 20
370.0
 40
62.5
 50
90.0
 51
270.0
  0
ARC
  8
0
  6
LTYPE3
 62
     2
 10
730.0
 20
370.0
 40
90.0
 50
90.0
 51
270.0
  0
LINE
  8
0
  6
LTYPE3
 62
     2
 10
730.0
 20
487.5
 11
730.0
 21
252.5
  0
CIRCLE
  8
0
  6
CONTINUOUS
 62
     1
 10
706.706285941
 20
456.933324366
 40
9.0
  0
LINE
  8
0
  6
LTYPE3
 62
     2
 10
703.471047877
 20
469.007397195
 11
709.941524005
 21
444.859251537
  0
CIRCLE
  8
0
  6
CONTINUOUS
 62
     1
 10
666.360389693
 20
433.639610307
 40
9.0
  0
LINE
  8
0
  6
LTYPE3
 62
     2
 10
657.521554928
 20
442.478445072
 11
675.199224458
 21
424.800775542
  0
CIRCLE
  8
0
  6
CONTINUOUS
 62
     1
 10
643.066675634
 20
393.293714059
 40
9.0
  0
LINE
  8
0
  6
LTYPE3
 62
     2
 10
630.992602805
 20
396.528952123
 11
655.140748463
 21
390.058475995
  0
CIRCLE
  8
0
  6
CONTINUOUS
 62
     1
 10
643.066675634
 20
346.706285941
 40
9.0
  0
LINE
  8
0
  6
LTYPE3
 62
     2
 10
630.992602805
 20
343.471047877
 11
655.140748463
 21
349.941524005
  0
CIRCLE
  8
0
  6
CONTINUOUS
 62
     1
 10
666.360389693
 20
306.360389693
 40
9.0
  0
LINE
  8
0
  6
LTYPE3
 62
     2
 10
657.521554928
 20
297.521554928
 11
675.199224458
 21
315.199224458
  0
CIRCLE
  8
0
  6
CONTINUOUS
 62
     1
 10
706.706285941
 20
283.066675634
 40
9.0
  0
LINE
  8
0
  6
LTYPE3
 62
     2
 10
703.471047877
 20
270.992602805
 11
709.941524005
 21
295.140748463
  0
LINE
  8
0
  6
LTYPE3
 62
     2
 10
740.0
 20
370.0
 11
612.5
 21
370.0
  0
LINE
  8
寸法線
  6
CONTINUOUS
 62
     2
 10
652.057713659
 20
415.0
 11
656.887342791
 21
413.705904774
  0
LINE
  8
寸法線
  6
CONTINUOUS
 62
     2
 10
652.057713659
 20
415.0
 11
655.593247565
 21
411.464466094
  0
TEXT
  8
寸法線
  6
CONTINUOUS
 62
     5
 10
740.872689603
 20
366.032050808
 30
0.2
 40
8.0
  1
Ｐ．Ｃ．Ｄ．１８０
 50
330.0
 41
0.875
 51
0.0
  7
KANJI11
  0
LINE
  8
寸法線
  6
CONTINUOUS
 62
     2
 10
786.724663948
 20
337.25
 11
652.057713659
 21
415.0
  0
LINE
  8
寸法線
  6
CONTINUOUS
 62
     2
 10
169.65767509
 20
276.702714603
 11
172.15767509
 21
272.372587584
  0
LINE
  8
寸法線
  6
CONTINUOUS
 62
     2
 10
169.65767509
 20
276.702714603
 11
173.987802109
 21
274.202714603
  0
LINE
  8
寸法線
  6
CONTINUOUS
 62
     2
 10
169.65767509
 20
276.702714603
 11
198.293714059
 21
248.066675634
  0
LINE
  8
寸法線
  6
CONTINUOUS
 62
     2
 10
198.293714059
 20
248.066675634
 11
262.893714059
 21
248.066675634
  0
TEXT
  8
寸法線
  6
CONTINUOUS
 62
     5
 10
198.293714059
 20
250.066675634
 30
0.2
 40
8.0
  1
１２－φ１８取付穴
 50
0.0
 41
0.875
 51
0.0
  7
KANJI11
  0
LINE
  8
寸法線
  6
CONTINUOUS
 62
     2
 10
700.34232491
 20
276.702714603
 11
696.012197891
 21
274.202714603
  0
LINE
  8
寸法線
  6
CONTINUOUS
 62
     2
 10
700.34232491
 20
276.702714603
 11
697.84232491
 21
272.372587584
  0
LINE
  8
寸法線
  6
CONTINUOUS
 62
     2
 10
700.34232491
 20
276.702714603
 11
671.706285941
 21
248.066675634
  0
LINE
  8
寸法線
  6
CONTINUOUS
 62
     2
 10
671.706285941
 20
248.066675634
 11
607.106285941
 21
248.066675634
  0
TEXT
  8
寸法線
  6
CONTINUOUS
 62
     5
 10
607.106285941
 20
250.066675634
 30
0.2
 40
8.0
  1
１２－φ１８取付穴
 50
0.0
 41
0.875
 51
0.0
  7
KANJI11
  0
LINE
  8
寸法線
  6
CONTINUOUS
 62
     2
 10
342.5
 20
477.5
 11
340.0
 21
481.830127019
  0
LINE
  8
寸法線
  6
CONTINUOUS
 62
     2
 10
342.5
 20
477.5
 11
338.169872981
 21
480.0
  0
LINE
  8
寸法線
  6
CONTINUOUS
 62
     2
 10
342.5
 20
477.5
 11
317.5
 21
502.5
  0
LINE
  8
寸法線
  6
CONTINUOUS
 62
     2
 10
317.5
 20
502.5
 11
224.1
 21
502.5
  0
TEXT
  8
寸法線
  6
CONTINUOUS
 62
     5
 10
224.1
 20
504.5
 30
0.2
 40
8.0
  1
２－Ｍ８アイボルト用ネジ穴
 50
0.0
 41
0.875
 51
0.0
  7
KANJI11
  0
LINE
  8
0
  6
CONTINUOUS
 62
     1
 10
368.3
 20
395.5
 11
369.1
 21
394.189820823
  0
LINE
  8
0
  6
CONTINUOUS
 62
     1
 10
369.1
 20
394.189820823
 11
370.9
 21
394.189820823
  0
LINE
  8
0
  6
CONTINUOUS
 62
     1
 10
370.9
 20
394.189820823
 11
371.7
 21
395.5
  0
LINE
  8
0
  6
CONTINUOUS
 62
     1
 10
368.3
 20
395.5
 11
369.1
 21
396.810179177
  0
LINE
  8
0
  6
CONTINUOUS
 62
     1
 10
369.1
 20
396.810179177
 11
370.9
 21
396.810179177
  0
LINE
  8
0
  6
CONTINUOUS
 62
     1
 10
370.9
 20
396.810179177
 11
371.7
 21
395.5
  0
LINE
  8
0
  6
LTYPE4
 62
     2
 10
375.5
 20
395.5
 11
364.5
 21
395.5
  0
LINE
  8
0
  6
LTYPE4
 62
     2
 10
370.0
 20
390.0
 11
370.0
 21
401.0
  0
POLYLINE
  8
0
  6
CONTINUOUS
 62
     1
 66
     1
 70
     1
  0
VERTEX
  8
0
  6
CONTINUOUS
 62
     1
 10
373.5
 20
395.5
 42
0.025187664
  0
VERTEX
  8
0
  6
CONTINUOUS
 62
     1
 10
373.486681443
 20
395.764176806
 42
0.025076847
  0
VERTEX
  8
0
  6
CONTINUOUS
 62
     1
 10
373.446827136
 20
396.026343066
 42
0.024845864
  0
VERTEX
  8
0
  6
CONTINUOUS
 62
     1
 10
373.380740392
 20
396.284503538
 42
0.024508071
  0
VERTEX
  8
0
  6
CONTINUOUS
 62
     1
 10
373.288924173
 20
396.536693465
 42
0.024082007
  0
VERTEX
  8
0
  6
CONTINUOUS
 62
     1
 10
373.172077255
 20
396.780993528
 42
0.023589414
  0
VERTEX
  8
0
  6
CONTINUOUS
 62
     1
 10
373.031088913
 20
397.015544457
 42
0.02305322
  0
VERTEX
  8
0
  6
CONTINUOUS
 62
     1
 10
372.867032155
 20
397.238561177
 42
0.022495771
  0
VERTEX
  8
0
  6
CONTINUOUS
 62
     1
 10
372.681155551
 20
397.448346397
 42
0.021937539
  0
VERTEX
  8
0
  6
CONTINUOUS
 62
     1
 10
372.474873734
 20
397.643303525
 42
0.021396316
  0
VERTEX
  8
0
  6
CONTINUOUS
 62
     1
 10
372.249756634
 20
397.821948819
 42
0.02088689
  0
VERTEX
  8
0
  6
CONTINUOUS
 62
     1
 10
372.007517527
 20
397.98292268
 42
0.020421065
  0
VERTEX
  8
0
  6
CONTINUOUS
 62
     1
 10
371.75
 20
398.125
 42
0.020007926
  0
VERTEX
  8
0
  6
CONTINUOUS
 62
     1
 10
371.479163916
 20
398.247099485
 42
0.019654221
  0
VERTEX
  8
0
  6
CONTINUOUS
 62
     1
 10
371.197070502
 20
398.348291885
 42
0.019364797
  0
VERTEX
  8
0
  6
CONTINUOUS
 62
     1
 10
370.905866658
 20
398.427807063
 42
0.019143001
  0
VERTEX
  8
0
  6
CONTINUOUS
 62
     1
 10
370.607768622
 20
398.485039862
 42
0.018991036
  0
VERTEX
  8
0
  6
CONTINUOUS
 62
     1
 10
370.3050451
 20
398.519554705
 42
0.018910232
  0
VERTEX
  8
0
  6
CONTINUOUS
 62
     1
 10
370.0
 20
398.531088913
 42
0.018901239
  0
VERTEX
  8
0
  6
CONTINUOUS
 62
     1
 10
369.6949549
 20
398.519554705
 42
0.018964128
  0
VERTEX
  8
0
  6
CONTINUOUS
 62
     1
 10
369.392231378
 20
398.485039862
 42
0.019098398
  0
VERTEX
  8
0
  6
CONTINUOUS
 62
     1
 10
369.094133342
 20
398.427807063
 42
0.019302905
  0
VERTEX
  8
0
  6
CONTINUOUS
 62
     1
 10
368.802929498
 20
398.348291885
 42
0.019575685
  0
VERTEX
  8
0
  6
CONTINUOUS
 62
     1
 10
368.520836084
 20
398.247099485
 42
0.019913709
  0
VERTEX
  8
0
  6
CONTINUOUS
 62
     1
 10
368.25
 20
398.125
 42
0.020312541
  0
VERTEX
  8
0
  6
CONTINUOUS
 62
     1
 10
367.992482473
 20
397.98292268
 42
0.020765948
  0
VERTEX
  8
0
  6
CONTINUOUS
 62
     1
 10
367.750243366
 20
397.821948819
 42
0.021265468
  0
VERTEX
  8
0
  6
CONTINUOUS
 62
     1
 10
367.525126266
 20
397.643303525
 42
0.021800009
  0
VERTEX
  8
0
  6
CONTINUOUS
 62
     1
 10
367.318844449
 20
397.448346397
 42
0.022355542
  0
VERTEX
  8
0
  6
CONTINUOUS
 62
     1
 10
367.132967845
 20
397.238561177
 42
0.022915011
  0
VERTEX
  8
0
  6
CONTINUOUS
 62
     1
 10
366.968911087
 20
397.015544457
 42
0.023458559
  0
VERTEX
  8
0
  6
CONTINUOUS
 62
     1
 10
366.827922745
 20
396.780993528
 42
0.023964205
  0
VERTEX
  8
0
  6
CONTINUOUS
 62
     1
 10
366.711075827
 20
396.536693465
 42
0.02440902
  0
VERTEX
  8
0
  6
CONTINUOUS
 62
     1
 10
366.619259608
 20
396.284503538
 42
0.02477078
  0
VERTEX
  8
0
  6
CONTINUOUS
 62
     1
 10
366.553172864
 20
396.026343066
 42
0.02502995
  0
VERTEX
  8
0
  6
CONTINUOUS
 62
     1
 10
366.513318557
 20
395.764176806
 42
0.025171713
  0
VERTEX
  8
0
  6
CONTINUOUS
 62
     1
 10
366.5
 20
395.5
 42
0.025187664
  0
VERTEX
  8
0
  6
CONTINUOUS
 62
     1
 10
366.513318557
 20
395.235823194
 42
0.025076847
  0
VERTEX
  8
0
  6
CONTINUOUS
 62
     1
 10
366.553172864
 20
394.973656934
 42
0.024845864
  0
VERTEX
  8
0
  6
CONTINUOUS
 62
     1
 10
366.619259608
 20
394.715496462
 42
0.024508071
  0
VERTEX
  8
0
  6
CONTINUOUS
 62
     1
 10
366.711075827
 20
394.463306535
 42
0.024082007
  0
VERTEX
  8
0
  6
CONTINUOUS
 62
     1
 10
366.827922745
 20
394.219006472
 42
0.023589414
  0
VERTEX
  8
0
  6
CONTINUOUS
 62
     1
 10
366.968911087
 20
393.984455543
 42
0.02305322
  0
VERTEX
  8
0
  6
CONTINUOUS
 62
     1
 10
367.132967845
 20
393.761438823
 42
0.022495771
  0
VERTEX
  8
0
  6
CONTINUOUS
 62
     1
 10
367.318844449
 20
393.551653603
 42
0.021937539
  0
VERTEX
  8
0
  6
CONTINUOUS
 62
     1
 10
367.525126266
 20
393.356696475
 42
0.021396316
  0
VERTEX
  8
0
  6
CONTINUOUS
 62
     1
 10
367.750243366
 20
393.178051181
 42
0.02088689
  0
VERTEX
  8
0
  6
CONTINUOUS
 62
     1
 10
367.992482473
 20
393.01707732
 42
0.020421065
  0
VERTEX
  8
0
  6
CONTINUOUS
 62
     1
 10
368.25
 20
392.875
 42
0.020007926
  0
VERTEX
  8
0
  6
CONTINUOUS
 62
     1
 10
368.520836084
 20
392.752900515
 42
0.019654221
  0
VERTEX
  8
0
  6
CONTINUOUS
 62
     1
 10
368.802929498
 20
392.651708115
 42
0.019364797
  0
VERTEX
  8
0
  6
CONTINUOUS
 62
     1
 10
369.094133342
 20
392.572192937
 42
0.019143001
  0
VERTEX
  8
0
  6
CONTINUOUS
 62
     1
 10
369.392231378
 20
392.514960138
 42
0.018991036
  0
VERTEX
  8
0
  6
CONTINUOUS
 62
     1
 10
369.6949549
 20
392.480445295
 42
0.018910232
  0
VERTEX
  8
0
  6
CONTINUOUS
 62
     1
 10
370.0
 20
392.468911087
 42
0.018901239
  0
VERTEX
  8
0
  6
CONTINUOUS
 62
     1
 10
370.3050451
 20
392.480445295
 42
0.018964128
  0
VERTEX
  8
0
  6
CONTINUOUS
 62
     1
 10
370.607768622
 20
392.514960138
 42
0.019098398
  0
VERTEX
  8
0
  6
CONTINUOUS
 62
     1
 10
370.905866658
 20
392.572192937
 42
0.019302905
  0
VERTEX
  8
0
  6
CONTINUOUS
 62
     1
 10
371.197070502
 20
392.651708115
 42
0.019575685
  0
VERTEX
  8
0
  6
CONTINUOUS
 62
     1
 10
371.479163916
 20
392.752900515
 42
0.019913709
  0
VERTEX
  8
0
  6
CONTINUOUS
 62
     1
 10
371.75
 20
392.875
 42
0.020312541
  0
VERTEX
  8
0
  6
CONTINUOUS
 62
     1
 10
372.007517527
 20
393.01707732
 42
0.020765948
  0
VERTEX
  8
0
  6
CONTINUOUS
 62
     1
 10
372.249756634
 20
393.178051181
 42
0.021265468
  0
VERTEX
  8
0
  6
CONTINUOUS
 62
     1
 10
372.474873734
 20
393.356696475
 42
0.021800009
  0
VERTEX
  8
0
  6
CONTINUOUS
 62
     1
 10
372.681155551
 20
393.551653603
 42
0.022355542
  0
VERTEX
  8
0
  6
CONTINUOUS
 62
     1
 10
372.867032155
 20
393.761438823
 42
0.022915011
  0
VERTEX
  8
0
  6
CONTINUOUS
 62
     1
 10
373.031088913
 20
393.984455543
 42
0.023458559
  0
VERTEX
  8
0
  6
CONTINUOUS
 62
     1
 10
373.172077255
 20
394.219006472
 42
0.023964205
  0
VERTEX
  8
0
  6
CONTINUOUS
 62
     1
 10
373.288924173
 20
394.463306535
 42
0.02440902
  0
VERTEX
  8
0
  6
CONTINUOUS
 62
     1
 10
373.380740392
 20
394.715496462
 42
0.02477078
  0
VERTEX
  8
0
  6
CONTINUOUS
 62
     1
 10
373.446827136
 20
394.973656934
 42
0.02502995
  0
VERTEX
  8
0
  6
CONTINUOUS
 62
     1
 10
373.486681443
 20
395.235823194
 42
0.025171713
  0
SEQEND
  8
0
  6
CONTINUOUS
 62
     1
  0
POLYLINE
  8
0
  6
CONTINUOUS
 62
     1
 66
     1
 70
     1
  0
VERTEX
  8
0
  6
CONTINUOUS
 62
     1
 10
374.0
 20
395.25
 42
0.025187664
  0
VERTEX
  8
0
  6
CONTINUOUS
 62
     1
 10
373.984778792
 20
395.551916349
 42
0.025076847
  0
VERTEX
  8
0
  6
CONTINUOUS
 62
     1
 10
373.939231012
 20
395.851534933
 42
0.024845864
  0
VERTEX
  8
0
  6
CONTINUOUS
 62
     1
 10
373.863703305
 20
396.146575472
 42
0.024508071
  0
VERTEX
  8
0
  6
CONTINUOUS
 62
     1
 10
373.758770483
 20
396.434792531
 42
0.024082007
  0
VERTEX
  8
0
  6
CONTINUOUS
 62
     1
 10
373.625231148
 20
396.713992603
 42
0.023589414
  0
VERTEX
  8
0
  6
CONTINUOUS
 62
     1
 10
373.464101615
 20
396.982050808
 42
0.02305322
  0
VERTEX
  8
0
  6
CONTINUOUS
 62
     1
 10
373.276608177
 20
397.23692706
 42
0.022495771
  0
VERTEX
  8
0
  6
CONTINUOUS
 62
     1
 10
373.064177772
 20
397.476681597
 42
0.021937539
  0
VERTEX
  8
0
  6
CONTINUOUS
 62
     1
 10
372.828427125
 20
397.699489743
 42
0.021396316
  0
VERTEX
  8
0
  6
CONTINUOUS
 62
     1
 10
372.571150439
 20
397.903655793
 42
0.02088689
  0
VERTEX
  8
0
  6
CONTINUOUS
 62
     1
 10
372.294305745
 20
398.08762592
 42
0.020421065
  0
VERTEX
  8
0
  6
CONTINUOUS
 62
     1
 10
372.0
 20
398.25
 42
0.020007926
  0
VERTEX
  8
0
  6
CONTINUOUS
 62
     1
 10
371.690473047
 20
398.389542269
 42
0.019654221
  0
VERTEX
  8
0
  6
CONTINUOUS
 62
     1
 10
371.368080573
 20
398.505190725
 42
0.019364797
  0
VERTEX
  8
0
  6
CONTINUOUS
 62
     1
 10
371.03527618
 20
398.596065215
 42
0.019143001
  0
VERTEX
  8
0
  6
CONTINUOUS
 62
     1
 10
370.694592711
 20
398.661474128
 42
0.018991036
  0
VERTEX
  8
0
  6
CONTINUOUS
 62
     1
 10
370.348622971
 20
398.700919663
 42
0.018910232
  0
VERTEX
  8
0
  6
CONTINUOUS
 62
     1
 10
370.0
 20
398.714101615
 42
0.018901239
  0
VERTEX
  8
0
  6
CONTINUOUS
 62
     1
 10
369.651377029
 20
398.700919663
 42
0.018964128
  0
VERTEX
  8
0
  6
CONTINUOUS
 62
     1
 10
369.305407289
 20
398.661474128
 42
0.019098398
  0
VERTEX
  8
0
  6
CONTINUOUS
 62
     1
 10
368.96472382
 20
398.596065215
 42
0.019302905
  0
VERTEX
  8
0
  6
CONTINUOUS
 62
     1
 10
368.631919427
 20
398.505190725
 42
0.019575685
  0
VERTEX
  8
0
  6
CONTINUOUS
 62
     1
 10
368.309526953
 20
398.389542269
 42
0.019913709
  0
VERTEX
  8
0
  6
CONTINUOUS
 62
     1
 10
368.0
 20
398.25
 42
0.020312541
  0
VERTEX
  8
0
  6
CONTINUOUS
 62
     1
 10
367.705694255
 20
398.08762592
 42
0.020765948
  0
VERTEX
  8
0
  6
CONTINUOUS
 62
     1
 10
367.428849561
 20
397.903655793
 42
0.021265468
  0
VERTEX
  8
0
  6
CONTINUOUS
 62
     1
 10
367.171572875
 20
397.699489743
 42
0.021800009
  0
VERTEX
  8
0
  6
CONTINUOUS
 62
     1
 10
366.935822228
 20
397.476681597
 42
0.022355542
  0
VERTEX
  8
0
  6
CONTINUOUS
 62
     1
 10
366.723391823
 20
397.23692706
 42
0.022915011
  0
VERTEX
  8
0
  6
CONTINUOUS
 62
     1
 10
366.535898385
 20
396.982050808
 42
0.023458559
  0
VERTEX
  8
0
  6
CONTINUOUS
 62
     1
 10
366.374768852
 20
396.713992603
 42
0.023964205
  0
VERTEX
  8
0
  6
CONTINUOUS
 62
     1
 10
366.241229517
 20
396.434792531
 42
0.02440902
  0
VERTEX
  8
0
  6
CONTINUOUS
 62
     1
 10
366.136296695
 20
396.146575472
 42
0.02477078
  0
VERTEX
  8
0
  6
CONTINUOUS
 62
     1
 10
366.060768988
 20
395.851534933
 42
0.02502995
  0
VERTEX
  8
0
  6
CONTINUOUS
 62
     1
 10
366.015221208
 20
395.551916349
 42
0.025171713
  0
VERTEX
  8
0
  6
CONTINUOUS
 62
     1
 10
366.0
 20
395.25
 42
0.025187664
  0
VERTEX
  8
0
  6
CONTINUOUS
 62
     1
 10
366.015221208
 20
394.948083651
 42
0.025076847
  0
VERTEX
  8
0
  6
CONTINUOUS
 62
     1
 10
366.060768988
 20
394.648465067
 42
0.024845864
  0
VERTEX
  8
0
  6
CONTINUOUS
 62
     1
 10
366.136296695
 20
394.353424528
 42
0.024508071
  0
VERTEX
  8
0
  6
CONTINUOUS
 62
     1
 10
366.241229517
 20
394.065207469
 42
0.024082007
  0
VERTEX
  8
0
  6
CONTINUOUS
 62
     1
 10
366.374768852
 20
393.786007397
 42
0.023589414
  0
VERTEX
  8
0
  6
CONTINUOUS
 62
     1
 10
366.535898385
 20
393.517949192
 42
0.02305322
  0
VERTEX
  8
0
  6
CONTINUOUS
 62
     1
 10
366.723391823
 20
393.26307294
 42
0.022495771
  0
VERTEX
  8
0
  6
CONTINUOUS
 62
     1
 10
366.935822228
 20
393.023318403
 42
0.021937539
  0
VERTEX
  8
0
  6
CONTINUOUS
 62
     1
 10
367.171572875
 20
392.800510257
 42
0.021396316
  0
VERTEX
  8
0
  6
CONTINUOUS
 62
     1
 10
367.428849561
 20
392.596344207
 42
0.02088689
  0
VERTEX
  8
0
  6
CONTINUOUS
 62
     1
 10
367.705694255
 20
392.41237408
 42
0.020421065
  0
VERTEX
  8
0
  6
CONTINUOUS
 62
     1
 10
368.0
 20
392.25
 42
0.020007926
  0
VERTEX
  8
0
  6
CONTINUOUS
 62
     1
 10
368.309526953
 20
392.110457731
 42
0.019654221
  0
VERTEX
  8
0
  6
CONTINUOUS
 62
     1
 10
368.631919427
 20
391.994809275
 42
0.019364797
  0
VERTEX
  8
0
  6
CONTINUOUS
 62
     1
 10
368.96472382
 20
391.903934785
 42
0.019143001
  0
VERTEX
  8
0
  6
CONTINUOUS
 62
     1
 10
369.305407289
 20
391.838525872
 42
0.018991036
  0
VERTEX
  8
0
  6
CONTINUOUS
 62
     1
 10
369.651377029
 20
391.799080337
 42
0.018910232
  0
VERTEX
  8
0
  6
CONTINUOUS
 62
     1
 10
370.0
 20
391.785898385
 42
0.018901239
  0
VERTEX
  8
0
  6
CONTINUOUS
 62
     1
 10
370.348622971
 20
391.799080337
 42
0.018964128
  0
VERTEX
  8
0
  6
CONTINUOUS
 62
     1
 10
370.694592711
 20
391.838525872
 42
0.019098398
  0
VERTEX
  8
0
  6
CONTINUOUS
 62
     1
 10
371.03527618
 20
391.903934785
 42
0.019302905
  0
VERTEX
  8
0
  6
CONTINUOUS
 62
     1
 10
371.368080573
 20
391.994809275
 42
0.019575685
  0
VERTEX
  8
0
  6
CONTINUOUS
 62
     1
 10
371.690473047
 20
392.110457731
 42
0.019913709
  0
VERTEX
  8
0
  6
CONTINUOUS
 62
     1
 10
372.0
 20
392.25
 42
0.020312541
  0
VERTEX
  8
0
  6
CONTINUOUS
 62
     1
 10
372.294305745
 20
392.41237408
 42
0.020765948
  0
VERTEX
  8
0
  6
CONTINUOUS
 62
     1
 10
372.571150439
 20
392.596344207
 42
0.021265468
  0
VERTEX
  8
0
  6
CONTINUOUS
 62
     1
 10
372.828427125
 20
392.800510257
 42
0.021800009
  0
VERTEX
  8
0
  6
CONTINUOUS
 62
     1
 10
373.064177772
 20
393.023318403
 42
0.022355542
  0
VERTEX
  8
0
  6
CONTINUOUS
 62
     1
 10
373.276608177
 20
393.26307294
 42
0.022915011
  0
VERTEX
  8
0
  6
CONTINUOUS
 62
     1
 10
373.464101615
 20
393.517949192
 42
0.023458559
  0
VERTEX
  8
0
  6
CONTINUOUS
 62
     1
 10
373.625231148
 20
393.786007397
 42
0.023964205
  0
VERTEX
  8
0
  6
CONTINUOUS
 62
     1
 10
373.758770483
 20
394.065207469
 42
0.02440902
  0
VERTEX
  8
0
  6
CONTINUOUS
 62
     1
 10
373.863703305
 20
394.353424528
 42
0.02477078
  0
VERTEX
  8
0
  6
CONTINUOUS
 62
     1
 10
373.939231012
 20
394.648465067
 42
0.02502995
  0
VERTEX
  8
0
  6
CONTINUOUS
 62
     1
 10
373.984778792
 20
394.948083651
 42
0.025171713
  0
SEQEND
  8
0
  6
CONTINUOUS
 62
     1
  0
LINE
  8
0
  6
CONTINUOUS
 62
     1
 10
366.5
 20
395.5
 11
366.5
 21
393.572949017
  0
LINE
  8
0
  6
CONTINUOUS
 62
     1
 10
373.5
 20
395.5
 11
373.5
 21
393.572949017
  0
LINE
  8
0
  6
CONTINUOUS
 62
     1
 10
368.3
 20
344.5
 11
369.1
 21
345.810179177
  0
LINE
  8
0
  6
CONTINUOUS
 62
     1
 10
369.1
 20
345.810179177
 11
370.9
 21
345.810179177
  0
LINE
  8
0
  6
CONTINUOUS
 62
     1
 10
370.9
 20
345.810179177
 11
371.7
 21
344.5
  0
LINE
  8
0
  6
CONTINUOUS
 62
     1
 10
368.3
 20
344.5
 11
369.1
 21
343.189820823
  0
LINE
  8
0
  6
CONTINUOUS
 62
     1
 10
369.1
 20
343.189820823
 11
370.9
 21
343.189820823
  0
LINE
  8
0
  6
CONTINUOUS
 62
     1
 10
370.9
 20
343.189820823
 11
371.7
 21
344.5
  0
LINE
  8
0
  6
LTYPE4
 62
     2
 10
375.5
 20
344.5
 11
364.5
 21
344.5
  0
LINE
  8
0
  6
LTYPE4
 62
     2
 10
370.0
 20
350.0
 11
370.0
 21
339.0
  0
POLYLINE
  8
0
  6
CONTINUOUS
 62
     1
 66
     1
 70
     1
  0
VERTEX
  8
0
  6
CONTINUOUS
 62
     1
 10
373.5
 20
344.5
 42
-0.025187664
  0
VERTEX
  8
0
  6
CONTINUOUS
 62
     1
 10
373.486681443
 20
344.235823194
 42
-0.025076847
  0
VERTEX
  8
0
  6
CONTINUOUS
 62
     1
 10
373.446827136
 20
343.973656934
 42
-0.024845864
  0
VERTEX
  8
0
  6
CONTINUOUS
 62
     1
 10
373.380740392
 20
343.715496462
 42
-0.024508071
  0
VERTEX
  8
0
  6
CONTINUOUS
 62
     1
 10
373.288924173
 20
343.463306535
 42
-0.024082007
  0
VERTEX
  8
0
  6
CONTINUOUS
 62
     1
 10
373.172077255
 20
343.219006472
 42
-0.023589414
  0
VERTEX
  8
0
  6
CONTINUOUS
 62
     1
 10
373.031088913
 20
342.984455543
 42
-0.02305322
  0
VERTEX
  8
0
  6
CONTINUOUS
 62
     1
 10
372.867032155
 20
342.761438823
 42
-0.022495771
  0
VERTEX
  8
0
  6
CONTINUOUS
 62
     1
 10
372.681155551
 20
342.551653603
 42
-0.021937539
  0
VERTEX
  8
0
  6
CONTINUOUS
 62
     1
 10
372.474873734
 20
342.356696475
 42
-0.021396316
  0
VERTEX
  8
0
  6
CONTINUOUS
 62
     1
 10
372.249756634
 20
342.178051181
 42
-0.02088689
  0
VERTEX
  8
0
  6
CONTINUOUS
 62
     1
 10
372.007517527
 20
342.01707732
 42
-0.020421065
  0
VERTEX
  8
0
  6
CONTINUOUS
 62
     1
 10
371.75
 20
341.875
 42
-0.020007926
  0
VERTEX
  8
0
  6
CONTINUOUS
 62
     1
 10
371.479163916
 20
341.752900515
 42
-0.019654221
  0
VERTEX
  8
0
  6
CONTINUOUS
 62
     1
 10
371.197070502
 20
341.651708115
 42
-0.019364797
  0
VERTEX
  8
0
  6
CONTINUOUS
 62
     1
 10
370.905866658
 20
341.572192937
 42
-0.019143001
  0
VERTEX
  8
0
  6
CONTINUOUS
 62
     1
 10
370.607768622
 20
341.514960138
 42
-0.018991036
  0
VERTEX
  8
0
  6
CONTINUOUS
 62
     1
 10
370.3050451
 20
341.480445295
 42
-0.018910232
  0
VERTEX
  8
0
  6
CONTINUOUS
 62
     1
 10
370.0
 20
341.468911087
 42
-0.018901239
  0
VERTEX
  8
0
  6
CONTINUOUS
 62
     1
 10
369.6949549
 20
341.480445295
 42
-0.018964128
  0
VERTEX
  8
0
  6
CONTINUOUS
 62
     1
 10
369.392231378
 20
341.514960138
 42
-0.019098398
  0
VERTEX
  8
0
  6
CONTINUOUS
 62
     1
 10
369.094133342
 20
341.572192937
 42
-0.019302905
  0
VERTEX
  8
0
  6
CONTINUOUS
 62
     1
 10
368.802929498
 20
341.651708115
 42
-0.019575685
  0
VERTEX
  8
0
  6
CONTINUOUS
 62
     1
 10
368.520836084
 20
341.752900515
 42
-0.019913709
  0
VERTEX
  8
0
  6
CONTINUOUS
 62
     1
 10
368.25
 20
341.875
 42
-0.020312541
  0
VERTEX
  8
0
  6
CONTINUOUS
 62
     1
 10
367.992482473
 20
342.01707732
 42
-0.020765948
  0
VERTEX
  8
0
  6
CONTINUOUS
 62
     1
 10
367.750243366
 20
342.178051181
 42
-0.021265468
  0
VERTEX
  8
0
  6
CONTINUOUS
 62
     1
 10
367.525126266
 20
342.356696475
 42
-0.021800009
  0
VERTEX
  8
0
  6
CONTINUOUS
 62
     1
 10
367.318844449
 20
342.551653603
 42
-0.022355542
  0
VERTEX
  8
0
  6
CONTINUOUS
 62
     1
 10
367.132967845
 20
342.761438823
 42
-0.022915011
  0
VERTEX
  8
0
  6
CONTINUOUS
 62
     1
 10
366.968911087
 20
342.984455543
 42
-0.023458559
  0
VERTEX
  8
0
  6
CONTINUOUS
 62
     1
 10
366.827922745
 20
343.219006472
 42
-0.023964205
  0
VERTEX
  8
0
  6
CONTINUOUS
 62
     1
 10
366.711075827
 20
343.463306535
 42
-0.02440902
  0
VERTEX
  8
0
  6
CONTINUOUS
 62
     1
 10
366.619259608
 20
343.715496462
 42
-0.02477078
  0
VERTEX
  8
0
  6
CONTINUOUS
 62
     1
 10
366.553172864
 20
343.973656934
 42
-0.02502995
  0
VERTEX
  8
0
  6
CONTINUOUS
 62
     1
 10
366.513318557
 20
344.235823194
 42
-0.025171713
  0
VERTEX
  8
0
  6
CONTINUOUS
 62
     1
 10
366.5
 20
344.5
 42
-0.025187664
  0
VERTEX
  8
0
  6
CONTINUOUS
 62
     1
 10
366.513318557
 20
344.764176806
 42
-0.025076847
  0
VERTEX
  8
0
  6
CONTINUOUS
 62
     1
 10
366.553172864
 20
345.026343066
 42
-0.024845864
  0
VERTEX
  8
0
  6
CONTINUOUS
 62
     1
 10
366.619259608
 20
345.284503538
 42
-0.024508071
  0
VERTEX
  8
0
  6
CONTINUOUS
 62
     1
 10
366.711075827
 20
345.536693465
 42
-0.024082007
  0
VERTEX
  8
0
  6
CONTINUOUS
 62
     1
 10
366.827922745
 20
345.780993528
 42
-0.023589414
  0
VERTEX
  8
0
  6
CONTINUOUS
 62
     1
 10
366.968911087
 20
346.015544457
 42
-0.02305322
  0
VERTEX
  8
0
  6
CONTINUOUS
 62
     1
 10
367.132967845
 20
346.238561177
 42
-0.022495771
  0
VERTEX
  8
0
  6
CONTINUOUS
 62
     1
 10
367.318844449
 20
346.448346397
 42
-0.021937539
  0
VERTEX
  8
0
  6
CONTINUOUS
 62
     1
 10
367.525126266
 20
346.643303525
 42
-0.021396316
  0
VERTEX
  8
0
  6
CONTINUOUS
 62
     1
 10
367.750243366
 20
346.821948819
 42
-0.02088689
  0
VERTEX
  8
0
  6
CONTINUOUS
 62
     1
 10
367.992482473
 20
346.98292268
 42
-0.020421065
  0
VERTEX
  8
0
  6
CONTINUOUS
 62
     1
 10
368.25
 20
347.125
 42
-0.020007926
  0
VERTEX
  8
0
  6
CONTINUOUS
 62
     1
 10
368.520836084
 20
347.247099485
 42
-0.019654221
  0
VERTEX
  8
0
  6
CONTINUOUS
 62
     1
 10
368.802929498
 20
347.348291885
 42
-0.019364797
  0
VERTEX
  8
0
  6
CONTINUOUS
 62
     1
 10
369.094133342
 20
347.427807063
 42
-0.019143001
  0
VERTEX
  8
0
  6
CONTINUOUS
 62
     1
 10
369.392231378
 20
347.485039862
 42
-0.018991036
  0
VERTEX
  8
0
  6
CONTINUOUS
 62
     1
 10
369.6949549
 20
347.519554705
 42
-0.018910232
  0
VERTEX
  8
0
  6
CONTINUOUS
 62
     1
 10
370.0
 20
347.531088913
 42
-0.018901239
  0
VERTEX
  8
0
  6
CONTINUOUS
 62
     1
 10
370.3050451
 20
347.519554705
 42
-0.018964128
  0
VERTEX
  8
0
  6
CONTINUOUS
 62
     1
 10
370.607768622
 20
347.485039862
 42
-0.019098398
  0
VERTEX
  8
0
  6
CONTINUOUS
 62
     1
 10
370.905866658
 20
347.427807063
 42
-0.019302905
  0
VERTEX
  8
0
  6
CONTINUOUS
 62
     1
 10
371.197070502
 20
347.348291885
 42
-0.019575685
  0
VERTEX
  8
0
  6
CONTINUOUS
 62
     1
 10
371.479163916
 20
347.247099485
 42
-0.019913709
  0
VERTEX
  8
0
  6
CONTINUOUS
 62
     1
 10
371.75
 20
347.125
 42
-0.020312541
  0
VERTEX
  8
0
  6
CONTINUOUS
 62
     1
 10
372.007517527
 20
346.98292268
 42
-0.020765948
  0
VERTEX
  8
0
  6
CONTINUOUS
 62
     1
 10
372.249756634
 20
346.821948819
 42
-0.021265468
  0
VERTEX
  8
0
  6
CONTINUOUS
 62
     1
 10
372.474873734
 20
346.643303525
 42
-0.021800009
  0
VERTEX
  8
0
  6
CONTINUOUS
 62
     1
 10
372.681155551
 20
346.448346397
 42
-0.022355542
  0
VERTEX
  8
0
  6
CONTINUOUS
 62
     1
 10
372.867032155
 20
346.238561177
 42
-0.022915011
  0
VERTEX
  8
0
  6
CONTINUOUS
 62
     1
 10
373.031088913
 20
346.015544457
 42
-0.023458559
  0
VERTEX
  8
0
  6
CONTINUOUS
 62
     1
 10
373.172077255
 20
345.780993528
 42
-0.023964205
  0
VERTEX
  8
0
  6
CONTINUOUS
 62
     1
 10
373.288924173
 20
345.536693465
 42
-0.02440902
  0
VERTEX
  8
0
  6
CONTINUOUS
 62
     1
 10
373.380740392
 20
345.284503538
 42
-0.02477078
  0
VERTEX
  8
0
  6
CONTINUOUS
 62
     1
 10
373.446827136
 20
345.026343066
 42
-0.02502995
  0
VERTEX
  8
0
  6
CONTINUOUS
 62
     1
 10
373.486681443
 20
344.764176806
 42
-0.025171713
  0
SEQEND
  8
0
  6
CONTINUOUS
 62
     1
  0
POLYLINE
  8
0
  6
CONTINUOUS
 62
     1
 66
     1
 70
     1
  0
VERTEX
  8
0
  6
CONTINUOUS
 62
     1
 10
374.0
 20
344.75
 42
-0.025187664
  0
VERTEX
  8
0
  6
CONTINUOUS
 62
     1
 10
373.984778792
 20
344.448083651
 42
-0.025076847
  0
VERTEX
  8
0
  6
CONTINUOUS
 62
     1
 10
373.939231012
 20
344.148465067
 42
-0.024845864
  0
VERTEX
  8
0
  6
CONTINUOUS
 62
     1
 10
373.863703305
 20
343.853424528
 42
-0.024508071
  0
VERTEX
  8
0
  6
CONTINUOUS
 62
     1
 10
373.758770483
 20
343.565207469
 42
-0.024082007
  0
VERTEX
  8
0
  6
CONTINUOUS
 62
     1
 10
373.625231148
 20
343.286007397
 42
-0.023589414
  0
VERTEX
  8
0
  6
CONTINUOUS
 62
     1
 10
373.464101615
 20
343.017949192
 42
-0.02305322
  0
VERTEX
  8
0
  6
CONTINUOUS
 62
     1
 10
373.276608177
 20
342.76307294
 42
-0.022495771
  0
VERTEX
  8
0
  6
CONTINUOUS
 62
     1
 10
373.064177772
 20
342.523318403
 42
-0.021937539
  0
VERTEX
  8
0
  6
CONTINUOUS
 62
     1
 10
372.828427125
 20
342.300510257
 42
-0.021396316
  0
VERTEX
  8
0
  6
CONTINUOUS
 62
     1
 10
372.571150439
 20
342.096344207
 42
-0.02088689
  0
VERTEX
  8
0
  6
CONTINUOUS
 62
     1
 10
372.294305745
 20
341.91237408
 42
-0.020421065
  0
VERTEX
  8
0
  6
CONTINUOUS
 62
     1
 10
372.0
 20
341.75
 42
-0.020007926
  0
VERTEX
  8
0
  6
CONTINUOUS
 62
     1
 10
371.690473047
 20
341.610457731
 42
-0.019654221
  0
VERTEX
  8
0
  6
CONTINUOUS
 62
     1
 10
371.368080573
 20
341.494809275
 42
-0.019364797
  0
VERTEX
  8
0
  6
CONTINUOUS
 62
     1
 10
371.03527618
 20
341.403934785
 42
-0.019143001
  0
VERTEX
  8
0
  6
CONTINUOUS
 62
     1
 10
370.694592711
 20
341.338525872
 42
-0.018991036
  0
VERTEX
  8
0
  6
CONTINUOUS
 62
     1
 10
370.348622971
 20
341.299080337
 42
-0.018910232
  0
VERTEX
  8
0
  6
CONTINUOUS
 62
     1
 10
370.0
 20
341.285898385
 42
-0.018901239
  0
VERTEX
  8
0
  6
CONTINUOUS
 62
     1
 10
369.651377029
 20
341.299080337
 42
-0.018964128
  0
VERTEX
  8
0
  6
CONTINUOUS
 62
     1
 10
369.305407289
 20
341.338525872
 42
-0.019098398
  0
VERTEX
  8
0
  6
CONTINUOUS
 62
     1
 10
368.96472382
 20
341.403934785
 42
-0.019302905
  0
VERTEX
  8
0
  6
CONTINUOUS
 62
     1
 10
368.631919427
 20
341.494809275
 42
-0.019575685
  0
VERTEX
  8
0
  6
CONTINUOUS
 62
     1
 10
368.309526953
 20
341.610457731
 42
-0.019913709
  0
VERTEX
  8
0
  6
CONTINUOUS
 62
     1
 10
368.0
 20
341.75
 42
-0.020312541
  0
VERTEX
  8
0
  6
CONTINUOUS
 62
     1
 10
367.705694255
 20
341.91237408
 42
-0.020765948
  0
VERTEX
  8
0
  6
CONTINUOUS
 62
     1
 10
367.428849561
 20
342.096344207
 42
-0.021265468
  0
VERTEX
  8
0
  6
CONTINUOUS
 62
     1
 10
367.171572875
 20
342.300510257
 42
-0.021800009
  0
VERTEX
  8
0
  6
CONTINUOUS
 62
     1
 10
366.935822228
 20
342.523318403
 42
-0.022355542
  0
VERTEX
  8
0
  6
CONTINUOUS
 62
     1
 10
366.723391823
 20
342.76307294
 42
-0.022915011
  0
VERTEX
  8
0
  6
CONTINUOUS
 62
     1
 10
366.535898385
 20
343.017949192
 42
-0.023458559
  0
VERTEX
  8
0
  6
CONTINUOUS
 62
     1
 10
366.374768852
 20
343.286007397
 42
-0.023964205
  0
VERTEX
  8
0
  6
CONTINUOUS
 62
     1
 10
366.241229517
 20
343.565207469
 42
-0.02440902
  0
VERTEX
  8
0
  6
CONTINUOUS
 62
     1
 10
366.136296695
 20
343.853424528
 42
-0.02477078
  0
VERTEX
  8
0
  6
CONTINUOUS
 62
     1
 10
366.060768988
 20
344.148465067
 42
-0.02502995
  0
VERTEX
  8
0
  6
CONTINUOUS
 62
     1
 10
366.015221208
 20
344.448083651
 42
-0.025171713
  0
VERTEX
  8
0
  6
CONTINUOUS
 62
     1
 10
366.0
 20
344.75
 42
-0.025187664
  0
VERTEX
  8
0
  6
CONTINUOUS
 62
     1
 10
366.015221208
 20
345.051916349
 42
-0.025076847
  0
VERTEX
  8
0
  6
CONTINUOUS
 62
     1
 10
366.060768988
 20
345.351534933
 42
-0.024845864
  0
VERTEX
  8
0
  6
CONTINUOUS
 62
     1
 10
366.136296695
 20
345.646575472
 42
-0.024508071
  0
VERTEX
  8
0
  6
CONTINUOUS
 62
     1
 10
366.241229517
 20
345.934792531
 42
-0.024082007
  0
VERTEX
  8
0
  6
CONTINUOUS
 62
     1
 10
366.374768852
 20
346.213992603
 42
-0.023589414
  0
VERTEX
  8
0
  6
CONTINUOUS
 62
     1
 10
366.535898385
 20
346.482050808
 42
-0.02305322
  0
VERTEX
  8
0
  6
CONTINUOUS
 62
     1
 10
366.723391823
 20
346.73692706
 42
-0.022495771
  0
VERTEX
  8
0
  6
CONTINUOUS
 62
     1
 10
366.935822228
 20
346.976681597
 42
-0.021937539
  0
VERTEX
  8
0
  6
CONTINUOUS
 62
     1
 10
367.171572875
 20
347.199489743
 42
-0.021396316
  0
VERTEX
  8
0
  6
CONTINUOUS
 62
     1
 10
367.428849561
 20
347.403655793
 42
-0.02088689
  0
VERTEX
  8
0
  6
CONTINUOUS
 62
     1
 10
367.705694255
 20
347.58762592
 42
-0.020421065
  0
VERTEX
  8
0
  6
CONTINUOUS
 62
     1
 10
368.0
 20
347.75
 42
-0.020007926
  0
VERTEX
  8
0
  6
CONTINUOUS
 62
     1
 10
368.309526953
 20
347.889542269
 42
-0.019654221
  0
VERTEX
  8
0
  6
CONTINUOUS
 62
     1
 10
368.631919427
 20
348.005190725
 42
-0.019364797
  0
VERTEX
  8
0
  6
CONTINUOUS
 62
     1
 10
368.96472382
 20
348.096065215
 42
-0.019143001
  0
VERTEX
  8
0
  6
CONTINUOUS
 62
     1
 10
369.305407289
 20
348.161474128
 42
-0.018991036
  0
VERTEX
  8
0
  6
CONTINUOUS
 62
     1
 10
369.651377029
 20
348.200919663
 42
-0.018910232
  0
VERTEX
  8
0
  6
CONTINUOUS
 62
     1
 10
370.0
 20
348.214101615
 42
-0.018901239
  0
VERTEX
  8
0
  6
CONTINUOUS
 62
     1
 10
370.348622971
 20
348.200919663
 42
-0.018964128
  0
VERTEX
  8
0
  6
CONTINUOUS
 62
     1
 10
370.694592711
 20
348.161474128
 42
-0.019098398
  0
VERTEX
  8
0
  6
CONTINUOUS
 62
     1
 10
371.03527618
 20
348.096065215
 42
-0.019302905
  0
VERTEX
  8
0
  6
CONTINUOUS
 62
     1
 10
371.368080573
 20
348.005190725
 42
-0.019575685
  0
VERTEX
  8
0
  6
CONTINUOUS
 62
     1
 10
371.690473047
 20
347.889542269
 42
-0.019913709
  0
VERTEX
  8
0
  6
CONTINUOUS
 62
     1
 10
372.0
 20
347.75
 42
-0.020312541
  0
VERTEX
  8
0
  6
CONTINUOUS
 62
     1
 10
372.294305745
 20
347.58762592
 42
-0.020765948
  0
VERTEX
  8
0
  6
CONTINUOUS
 62
     1
 10
372.571150439
 20
347.403655793
 42
-0.021265468
  0
VERTEX
  8
0
  6
CONTINUOUS
 62
     1
 10
372.828427125
 20
347.199489743
 42
-0.021800009
  0
VERTEX
  8
0
  6
CONTINUOUS
 62
     1
 10
373.064177772
 20
346.976681597
 42
-0.022355542
  0
VERTEX
  8
0
  6
CONTINUOUS
 62
     1
 10
373.276608177
 20
346.73692706
 42
-0.022915011
  0
VERTEX
  8
0
  6
CONTINUOUS
 62
     1
 10
373.464101615
 20
346.482050808
 42
-0.023458559
  0
VERTEX
  8
0
  6
CONTINUOUS
 62
     1
 10
373.625231148
 20
346.213992603
 42
-0.023964205
  0
VERTEX
  8
0
  6
CONTINUOUS
 62
     1
 10
373.758770483
 20
345.934792531
 42
-0.02440902
  0
VERTEX
  8
0
  6
CONTINUOUS
 62
     1
 10
373.863703305
 20
345.646575472
 42
-0.02477078
  0
VERTEX
  8
0
  6
CONTINUOUS
 62
     1
 10
373.939231012
 20
345.351534933
 42
-0.02502995
  0
VERTEX
  8
0
  6
CONTINUOUS
 62
     1
 10
373.984778792
 20
345.051916349
 42
-0.025171713
  0
SEQEND
  8
0
  6
CONTINUOUS
 62
     1
  0
LINE
  8
0
  6
CONTINUOUS
 62
     1
 10
373.5
 20
344.5
 11
373.5
 21
346.427050983
  0
LINE
  8
0
  6
CONTINUOUS
 62
     1
 10
366.5
 20
420.5
 11
366.5
 21
421.0
  0
LINE
  8
0
  6
CONTINUOUS
 62
     1
 10
366.5
 20
421.0
 11
373.5
 21
421.0
  0
LINE
  8
0
  6
CONTINUOUS
 62
     1
 10
373.5
 20
421.0
 11
373.5
 21
420.5
  0
LINE
  8
0
  6
LTYPE4
 62
     2
 10
370.0
 20
415.0
 11
370.0
 21
426.0
  0
LINE
  8
0
  6
CONTINUOUS
 62
     1
 10
411.5
 20
319.5
 11
365.0
 21
319.5
  0
LINE
  8
0
  6
CONTINUOUS
 62
     1
 10
366.5
 20
319.5
 11
366.5
 21
319.0
  0
LINE
  8
0
  6
CONTINUOUS
 62
     1
 10
366.5
 20
319.0
 11
373.5
 21
319.0
  0
LINE
  8
0
  6
CONTINUOUS
 62
     1
 10
373.5
 20
319.0
 11
373.5
 21
319.5
  0
LINE
  8
0
  6
LTYPE4
 62
     2
 10
370.0
 20
325.0
 11
370.0
 21
314.0
  0
TEXT
  8
表題欄
  6
CONTINUOUS
 62
     5
 10
720.0
 20
140.0
 30
0.2
 40
8.0
  1
４，５　ｋＮ・ｍ
 50
0.0
 41
0.875
 51
0.0
  7
KANJI11
  0
TEXT
  8
表題欄
  6
CONTINUOUS
 62
     5
 10
716.3
 20
24.0
 30
0.2
 40
8.0
  1
Ｉ－０１３７－Ａ００１
 50
0.0
 41
0.875
 51
0.0
  7
KANJI11
  0
TEXT
  8
表題欄
  6
CONTINUOUS
 62
     5
 10
569.0
 20
46.0
 30
0.0
 40
8.0
  1
２
 50
0.0
 41
0.875
 51
0.0
  7
KANJI0
  0
ENDSEC
  0
EOF
