  0
SECTION
  2
HEADER
  9
$EXTMIN
 10
0.0
 20
0.0
 30
0.0
  9
$EXTMAX
 10
105.0
 20
148.5
 30
0.0
  9
$LIMMIN
 10
0.0
 20
0.0
  9
$LIMMAX
 10
105.0
 20
148.5
  9
$LTSCALE
 40
1.0
  9
$PDMODE
 70
     0
  0
ENDSEC
  0
SECTION
  2
TABLES
  0
TABLE
  2
LTYPE
 70
     4
  0
LTYPE
  2
CONTINUOUS
 70
    64
  3
Solid line
 72
    65
 73
     0
 40
0.0
  0
LTYPE
  2
LTYPE1
 70
    64
  3
PHANTOM
 72
    65
 73
     6
 40
5.0
 49
3.75
 49
-0.25
 49
0.25
 49
-0.25
 49
0.25
 49
-0.25
  0
LTYPE
  2
LTYPE2
 70
    64
  3
HIDDEN
 72
    65
 73
     2
 40
1.0
 49
0.6
 49
-0.4
  0
LTYPE
  2
LTYPE3
 70
    64
  3
CENTER
 72
    65
 73
     4
 40
5.0
 49
3.5
 49
-0.5
 49
0.5
 49
-0.5
  0
ENDTAB
  0
TABLE
  2
LAYER
 70
   128
  0
LAYER
  2
0
 70
     0
 62
     7
  6
CONTINUOUS
  0
LAYER
  2
2
 70
     0
 62
     7
  6
CONTINUOUS
  0
LAYER
  2
3
 70
     0
 62
     7
  6
CONTINUOUS
  0
LAYER
  2
4
 70
     0
 62
     7
  6
CONTINUOUS
  0
LAYER
  2
5
 70
     0
 62
     7
  6
CONTINUOUS
  0
LAYER
  2
6
 70
     0
 62
     7
  6
CONTINUOUS
  0
LAYER
  2
7
 70
     0
 62
     7
  6
CONTINUOUS
  0
LAYER
  2
8
 70
     0
 62
     7
  6
CONTINUOUS
  0
LAYER
  2
9
 70
     0
 62
     7
  6
CONTINUOUS
  0
LAYER
  2
10
 70
     0
 62
     7
  6
CONTINUOUS
  0
LAYER
  2
11
 70
     0
 62
     7
  6
CONTINUOUS
  0
LAYER
  2
12
 70
     0
 62
     7
  6
CONTINUOUS
  0
LAYER
  2
13
 70
     0
 62
     7
  6
CONTINUOUS
  0
LAYER
  2
14
 70
     0
 62
     7
  6
CONTINUOUS
  0
LAYER
  2
15
 70
     0
 62
     7
  6
CONTINUOUS
  0
LAYER
  2
16
 70
     0
 62
     7
  6
CONTINUOUS
  0
LAYER
  2
17
 70
     0
 62
     7
  6
CONTINUOUS
  0
LAYER
  2
18
 70
     0
 62
     7
  6
CONTINUOUS
  0
LAYER
  2
19
 70
     0
 62
     7
  6
CONTINUOUS
  0
LAYER
  2
20
 70
     0
 62
     7
  6
CONTINUOUS
  0
LAYER
  2
21
 70
     0
 62
     7
  6
CONTINUOUS
  0
LAYER
  2
22
 70
     0
 62
     7
  6
CONTINUOUS
  0
LAYER
  2
23
 70
     0
 62
     7
  6
CONTINUOUS
  0
LAYER
  2
24
 70
     0
 62
     7
  6
CONTINUOUS
  0
LAYER
  2
25
 70
     0
 62
     7
  6
CONTINUOUS
  0
LAYER
  2
26
 70
     0
 62
     7
  6
CONTINUOUS
  0
LAYER
  2
27
 70
     0
 62
     7
  6
CONTINUOUS
  0
LAYER
  2
28
 70
     0
 62
     7
  6
CONTINUOUS
  0
LAYER
  2
29
 70
     0
 62
     7
  6
CONTINUOUS
  0
LAYER
  2
30
 70
     0
 62
     7
  6
CONTINUOUS
  0
LAYER
  2
31
 70
     0
 62
     7
  6
CONTINUOUS
  0
LAYER
  2
32
 70
     0
 62
     7
  6
CONTINUOUS
  0
LAYER
  2
33
 70
     0
 62
     7
  6
CONTINUOUS
  0
LAYER
  2
34
 70
     0
 62
     7
  6
CONTINUOUS
  0
LAYER
  2
35
 70
     0
 62
     7
  6
CONTINUOUS
  0
LAYER
  2
36
 70
     0
 62
     7
  6
CONTINUOUS
  0
LAYER
  2
37
 70
     0
 62
     7
  6
CONTINUOUS
  0
LAYER
  2
38
 70
     0
 62
     7
  6
CONTINUOUS
  0
LAYER
  2
39
 70
     0
 62
     7
  6
CONTINUOUS
  0
LAYER
  2
40
 70
     0
 62
     7
  6
CONTINUOUS
  0
LAYER
  2
41
 70
     0
 62
     7
  6
CONTINUOUS
  0
LAYER
  2
42
 70
     0
 62
     7
  6
CONTINUOUS
  0
LAYER
  2
43
 70
     0
 62
     7
  6
CONTINUOUS
  0
LAYER
  2
44
 70
     0
 62
     7
  6
CONTINUOUS
  0
LAYER
  2
45
 70
     0
 62
     7
  6
CONTINUOUS
  0
LAYER
  2
46
 70
     0
 62
     7
  6
CONTINUOUS
  0
LAYER
  2
47
 70
     0
 62
     7
  6
CONTINUOUS
  0
LAYER
  2
48
 70
     0
 62
     7
  6
CONTINUOUS
  0
LAYER
  2
49
 70
     0
 62
     7
  6
CONTINUOUS
  0
LAYER
  2
50
 70
     0
 62
     7
  6
CONTINUOUS
  0
LAYER
  2
51
 70
     0
 62
     7
  6
CONTINUOUS
  0
LAYER
  2
52
 70
     0
 62
     7
  6
CONTINUOUS
  0
LAYER
  2
53
 70
     0
 62
     7
  6
CONTINUOUS
  0
LAYER
  2
54
 70
     0
 62
     7
  6
CONTINUOUS
  0
LAYER
  2
55
 70
     0
 62
     7
  6
CONTINUOUS
  0
LAYER
  2
56
 70
     0
 62
     7
  6
CONTINUOUS
  0
LAYER
  2
57
 70
     0
 62
     7
  6
CONTINUOUS
  0
LAYER
  2
58
 70
     0
 62
     7
  6
CONTINUOUS
  0
LAYER
  2
59
 70
     0
 62
     7
  6
CONTINUOUS
  0
LAYER
  2
60
 70
     0
 62
     7
  6
CONTINUOUS
  0
LAYER
  2
61
 70
     0
 62
     7
  6
CONTINUOUS
  0
LAYER
  2
62
 70
     0
 62
     7
  6
CONTINUOUS
  0
LAYER
  2
63
 70
     0
 62
     7
  6
CONTINUOUS
  0
LAYER
  2
64
 70
     0
 62
     7
  6
CONTINUOUS
  0
LAYER
  2
65
 70
     0
 62
     7
  6
CONTINUOUS
  0
LAYER
  2
66
 70
     0
 62
     7
  6
CONTINUOUS
  0
LAYER
  2
67
 70
     0
 62
     7
  6
CONTINUOUS
  0
LAYER
  2
68
 70
     0
 62
     7
  6
CONTINUOUS
  0
LAYER
  2
69
 70
     0
 62
     7
  6
CONTINUOUS
  0
LAYER
  2
70
 70
     0
 62
     7
  6
CONTINUOUS
  0
LAYER
  2
71
 70
     0
 62
     7
  6
CONTINUOUS
  0
LAYER
  2
72
 70
     0
 62
     7
  6
CONTINUOUS
  0
LAYER
  2
73
 70
     0
 62
     7
  6
CONTINUOUS
  0
LAYER
  2
74
 70
     0
 62
     7
  6
CONTINUOUS
  0
LAYER
  2
75
 70
     0
 62
     7
  6
CONTINUOUS
  0
LAYER
  2
76
 70
     0
 62
     7
  6
CONTINUOUS
  0
LAYER
  2
77
 70
     0
 62
     7
  6
CONTINUOUS
  0
LAYER
  2
78
 70
     0
 62
     7
  6
CONTINUOUS
  0
LAYER
  2
79
 70
     0
 62
     7
  6
CONTINUOUS
  0
LAYER
  2
80
 70
     0
 62
     7
  6
CONTINUOUS
  0
LAYER
  2
81
 70
     0
 62
     7
  6
CONTINUOUS
  0
LAYER
  2
82
 70
     0
 62
     7
  6
CONTINUOUS
  0
LAYER
  2
83
 70
     0
 62
     7
  6
CONTINUOUS
  0
LAYER
  2
84
 70
     0
 62
     7
  6
CONTINUOUS
  0
LAYER
  2
85
 70
     0
 62
     7
  6
CONTINUOUS
  0
LAYER
  2
86
 70
     0
 62
     7
  6
CONTINUOUS
  0
LAYER
  2
87
 70
     0
 62
     7
  6
CONTINUOUS
  0
LAYER
  2
88
 70
     0
 62
     7
  6
CONTINUOUS
  0
LAYER
  2
89
 70
     0
 62
     7
  6
CONTINUOUS
  0
LAYER
  2
90
 70
     0
 62
     7
  6
CONTINUOUS
  0
LAYER
  2
91
 70
     0
 62
     7
  6
CONTINUOUS
  0
LAYER
  2
92
 70
     0
 62
     7
  6
CONTINUOUS
  0
LAYER
  2
93
 70
     0
 62
     7
  6
CONTINUOUS
  0
LAYER
  2
94
 70
     0
 62
     7
  6
CONTINUOUS
  0
LAYER
  2
95
 70
     0
 62
     7
  6
CONTINUOUS
  0
LAYER
  2
96
 70
     0
 62
     7
  6
CONTINUOUS
  0
LAYER
  2
97
 70
     0
 62
     7
  6
CONTINUOUS
  0
LAYER
  2
98
 70
     0
 62
     7
  6
CONTINUOUS
  0
LAYER
  2
99
 70
     0
 62
     7
  6
CONTINUOUS
  0
LAYER
  2
100
 70
     0
 62
     7
  6
CONTINUOUS
  0
LAYER
  2
101
 70
     0
 62
     7
  6
CONTINUOUS
  0
LAYER
  2
102
 70
     0
 62
     7
  6
CONTINUOUS
  0
LAYER
  2
103
 70
     0
 62
     7
  6
CONTINUOUS
  0
LAYER
  2
104
 70
     0
 62
     7
  6
CONTINUOUS
  0
LAYER
  2
105
 70
     0
 62
     7
  6
CONTINUOUS
  0
LAYER
  2
106
 70
     0
 62
     7
  6
CONTINUOUS
  0
LAYER
  2
107
 70
     0
 62
     7
  6
CONTINUOUS
  0
LAYER
  2
108
 70
     0
 62
     7
  6
CONTINUOUS
  0
LAYER
  2
109
 70
     0
 62
     7
  6
CONTINUOUS
  0
LAYER
  2
110
 70
     0
 62
     7
  6
CONTINUOUS
  0
LAYER
  2
111
 70
     0
 62
     7
  6
CONTINUOUS
  0
LAYER
  2
112
 70
     0
 62
     7
  6
CONTINUOUS
  0
LAYER
  2
113
 70
     0
 62
     7
  6
CONTINUOUS
  0
LAYER
  2
114
 70
     0
 62
     7
  6
CONTINUOUS
  0
LAYER
  2
115
 70
     0
 62
     7
  6
CONTINUOUS
  0
LAYER
  2
116
 70
     0
 62
     7
  6
CONTINUOUS
  0
LAYER
  2
117
 70
     0
 62
     7
  6
CONTINUOUS
  0
LAYER
  2
118
 70
     0
 62
     7
  6
CONTINUOUS
  0
LAYER
  2
119
 70
     0
 62
     7
  6
CONTINUOUS
  0
LAYER
  2
120
 70
     0
 62
     7
  6
CONTINUOUS
  0
LAYER
  2
121
 70
     0
 62
     7
  6
CONTINUOUS
  0
LAYER
  2
122
 70
     0
 62
     7
  6
CONTINUOUS
  0
LAYER
  2
123
 70
     0
 62
     7
  6
CONTINUOUS
  0
LAYER
  2
124
 70
     0
 62
     7
  6
CONTINUOUS
  0
LAYER
  2
125
 70
     0
 62
     7
  6
CONTINUOUS
  0
LAYER
  2
126
 70
     0
 62
     7
  6
CONTINUOUS
  0
LAYER
  2
127
 70
     0
 62
     7
  6
CONTINUOUS
  0
LAYER
  2
128
 70
     0
 62
     7
  6
CONTINUOUS
  0
ENDTAB
  0
TABLE
  2
STYLE
 70
    13
  0
STYLE
  2
STANDARD
 70
     0
 40
0.0
 41
1.0
 50
0.0
 71
     0
 42
0.2
  3
txt
  4

  0
STYLE
  2
KANJI0
 70
     0
 40
2.0
 41
0.875
 50
0.0
 71
     0
 42
2.0
  3

  4
bigfont
  0
STYLE
  2
KANJI1
 70
     0
 40
2.5
 41
1.2
 50
0.0
 71
     0
 42
2.5
  3

  4
bigfont
  0
STYLE
  2
KANJI2
 70
     0
 40
2.5
 41
1.0
 50
0.0
 71
     0
 42
2.5
  3

  4
bigfont
  0
STYLE
  2
KANJI3
 70
     0
 40
1.25
 41
1.0
 50
0.0
 71
     0
 42
1.25
  3

  4
bigfont
  0
STYLE
  2
KANJI4
 70
     0
 40
1.25
 41
1.0
 50
0.0
 71
     0
 42
1.25
  3

  4
bigfont
  0
STYLE
  2
KANJI5
 70
     0
 40
1.25
 41
1.0
 50
0.0
 71
     0
 42
1.25
  3

  4
bigfont
  0
STYLE
  2
KANJI6
 70
     0
 40
2.0
 41
1.125
 50
0.0
 71
     0
 42
2.0
  3

  4
bigfont
  0
STYLE
  2
KANJI7
 70
     0
 40
3.5
 41
0.857142857
 50
0.0
 71
     0
 42
3.5
  3

  4
bigfont
  0
STYLE
  2
KANJI8
 70
     0
 40
1.5
 41
0.666666667
 50
0.0
 71
     0
 42
1.5
  3

  4
bigfont
  0
STYLE
  2
KANJI9
 70
     0
 40
1.5
 41
1.0
 50
0.0
 71
     0
 42
1.5
  3

  4
bigfont
  0
STYLE
  2
KANJI10
 70
     0
 40
1.5
 41
0.833333333
 50
0.0
 71
     0
 42
1.5
  3

  4
bigfont
  0
STYLE
  2
KANJI11
 70
     0
 40
2.0
 41
0.875
 50
0.0
 71
     0
 42
2.0
  3

  4
bigfont
  0
ENDTAB
  0
TABLE
  2
VIEW
 70
     0
  0
ENDTAB
  0
ENDSEC
  0
SECTION
  2
BLOCKS
  0
ENDSEC
  0
SECTION
  2
ENTITIES
  0
TEXT
  8
6
  6
CONTINUOUS
 62
     5
 10
66.5
 20
12.0
 30
0.0
 40
2.0
  1
益子
 50
0.0
 41
0.875
 51
0.0
  7
KANJI0
  0
LINE
  8
7
  6
CONTINUOUS
 62
     2
 10
12.0
 20
124.75
 11
9.5
 21
124.75
  0
LINE
  8
7
  6
CONTINUOUS
 62
     2
 10
78.25
 20
144.0
 11
78.25
 21
146.5
  0
LINE
  8
7
  6
CONTINUOUS
 62
     2
 10
25.75
 20
144.0
 11
25.75
 21
146.5
  0
LINE
  8
7
  6
CONTINUOUS
 62
     2
 10
12.0
 20
99.75
 11
9.5
 21
99.75
  0
TEXT
  8
7
  6
CONTINUOUS
 62
     6
 10
37.375
 20
144.75
 30
0.0
 40
2.5
  1
２
 50
0.0
 41
1.2
 51
0.0
  7
KANJI1
  0
TEXT
  8
7
  6
CONTINUOUS
 62
     6
 10
11.125
 20
144.75
 30
0.0
 40
2.5
  1
１
 50
0.0
 41
1.2
 51
0.0
  7
KANJI1
  0
TEXT
  8
7
  6
CONTINUOUS
 62
     6
 10
63.625
 20
144.75
 30
0.0
 40
2.5
  1
３
 50
0.0
 41
1.2
 51
0.0
  7
KANJI1
  0
TEXT
  8
7
  6
CONTINUOUS
 62
     6
 10
89.125
 20
144.5
 30
0.0
 40
2.5
  1
４
 50
0.0
 41
1.2
 51
0.0
  7
KANJI1
  0
TEXT
  8
7
  6
CONTINUOUS
 62
     6
 10
8.75
 20
136.0
 30
0.0
 40
2.5
  1
Ａ
 50
0.0
 41
1.0
 51
0.0
  7
KANJI2
  0
TEXT
  8
7
  6
CONTINUOUS
 62
     6
 10
8.75
 20
111.0
 30
0.0
 40
2.5
  1
Ｂ
 50
0.0
 41
1.0
 51
0.0
  7
KANJI2
  0
TEXT
  8
7
  6
CONTINUOUS
 62
     6
 10
8.75
 20
86.0
 30
0.0
 40
2.5
  1
Ｃ
 50
0.0
 41
1.0
 51
0.0
  7
KANJI2
  0
TEXT
  8
7
  6
CONTINUOUS
 62
     6
 10
8.75
 20
61.0
 30
0.0
 40
2.5
  1
Ｄ
 50
0.0
 41
1.0
 51
0.0
  7
KANJI2
  0
LINE
  8
7
  6
CONTINUOUS
 62
     6
 10
52.0
 20
144.0
 11
52.0
 21
149.0
  0
LINE
  8
7
  6
CONTINUOUS
 62
     6
 10
12.0
 20
74.75
 11
-0.5
 21
74.75
  0
LINE
  8
7
  6
CONTINUOUS
 62
     6
 10
12.0
 20
144.0
 11
12.0
 21
5.5
  0
LINE
  8
7
  6
CONTINUOUS
 62
     2
 10
99.0
 20
99.75
 11
101.5
 21
99.75
  0
LINE
  8
7
  6
CONTINUOUS
 62
     2
 10
99.0
 20
124.75
 11
101.5
 21
124.75
  0
TEXT
  8
7
  6
CONTINUOUS
 62
     6
 10
99.75
 20
136.0
 30
0.0
 40
2.5
  1
Ａ
 50
0.0
 41
1.0
 51
0.0
  7
KANJI2
  0
TEXT
  8
7
  6
CONTINUOUS
 62
     6
 10
99.75
 20
111.0
 30
0.0
 40
2.5
  1
Ｂ
 50
0.0
 41
1.0
 51
0.0
  7
KANJI2
  0
TEXT
  8
7
  6
CONTINUOUS
 62
     6
 10
99.75
 20
86.0
 30
0.0
 40
2.5
  1
Ｃ
 50
0.0
 41
1.0
 51
0.0
  7
KANJI2
  0
TEXT
  8
7
  6
CONTINUOUS
 62
     6
 10
99.75
 20
61.0
 30
0.0
 40
2.5
  1
Ｄ
 50
0.0
 41
1.0
 51
0.0
  7
KANJI2
  0
LINE
  8
7
  6
CONTINUOUS
 62
     6
 10
99.0
 20
144.0
 11
12.0
 21
144.0
  0
LINE
  8
7
  6
CONTINUOUS
 62
     6
 10
99.0
 20
74.75
 11
104.5
 21
74.75
  0
LINE
  8
7
  6
CONTINUOUS
 62
     6
 10
99.0
 20
5.5
 11
99.0
 21
144.0
  0
LINE
  8
7
  6
CONTINUOUS
 62
     2
 10
99.0
 20
49.75
 11
101.5
 21
49.75
  0
LINE
  8
7
  6
CONTINUOUS
 62
     2
 10
99.0
 20
24.75
 11
101.5
 21
24.75
  0
LINE
  8
7
  6
CONTINUOUS
 62
     2
 10
99.0
 20
38.0
 11
97.75
 21
38.0
  0
LINE
  8
7
  6
CONTINUOUS
 62
     2
 10
99.0
 20
42.0
 11
97.75
 21
42.0
  0
LINE
  8
7
  6
CONTINUOUS
 62
     2
 10
99.0
 20
46.0
 11
97.75
 21
46.0
  0
TEXT
  8
7
  6
CONTINUOUS
 62
     6
 10
99.75
 20
36.0
 30
0.0
 40
2.5
  1
Ｅ
 50
0.0
 41
1.0
 51
0.0
  7
KANJI2
  0
TEXT
  8
7
  6
CONTINUOUS
 62
     6
 10
99.75
 20
11.0
 30
0.0
 40
2.5
  1
Ｆ
 50
0.0
 41
1.0
 51
0.0
  7
KANJI2
  0
LINE
  8
7
  6
CONTINUOUS
 62
     2
 10
72.5
 20
16.5
 11
99.0
 21
16.5
  0
LINE
  8
7
  6
CONTINUOUS
 62
     2
 10
72.5
 20
11.0
 11
99.0
 21
11.0
  0
LINE
  8
7
  6
CONTINUOUS
 62
     6
 10
94.5
 20
5.5
 11
99.0
 21
5.5
  0
LINE
  8
7
  6
CONTINUOUS
 62
     2
 10
32.5
 20
26.0
 11
99.0
 21
26.0
  0
LINE
  8
7
  6
CONTINUOUS
 62
     2
 10
32.5
 20
34.0
 11
99.0
 21
34.0
  0
LINE
  8
7
  6
CONTINUOUS
 62
     2
 10
32.5
 20
30.0
 11
99.0
 21
30.0
  0
LINE
  8
7
  6
CONTINUOUS
 62
     2
 10
32.5
 20
22.0
 11
99.0
 21
22.0
  0
LINE
  8
7
  6
CONTINUOUS
 62
     2
 10
25.75
 20
5.5
 11
25.75
 21
3.0
  0
LINE
  8
7
  6
CONTINUOUS
 62
     2
 10
12.0
 20
49.75
 11
9.5
 21
49.75
  0
LINE
  8
7
  6
CONTINUOUS
 62
     2
 10
12.0
 20
24.75
 11
9.5
 21
24.75
  0
LINE
  8
7
  6
CONTINUOUS
 62
     2
 10
15.5
 20
34.0
 11
15.5
 21
5.5
  0
LINE
  8
7
  6
CONTINUOUS
 62
     2
 10
19.0
 20
34.0
 11
19.0
 21
5.5
  0
LINE
  8
7
  6
CONTINUOUS
 62
     2
 10
22.5
 20
34.0
 11
22.5
 21
5.5
  0
LINE
  8
7
  6
CONTINUOUS
 62
     2
 10
26.0
 20
34.0
 11
26.0
 21
5.5
  0
TEXT
  8
7
  6
CONTINUOUS
 62
     6
 10
8.75
 20
36.0
 30
0.0
 40
2.5
  1
Ｅ
 50
0.0
 41
1.0
 51
0.0
  7
KANJI2
  0
TEXT
  8
7
  6
CONTINUOUS
 62
     6
 10
8.75
 20
11.0
 30
0.0
 40
2.5
  1
Ｆ
 50
0.0
 41
1.0
 51
0.0
  7
KANJI2
  0
TEXT
  8
7
  6
CONTINUOUS
 62
     6
 10
11.125
 20
2.25
 30
0.0
 40
2.5
  1
１
 50
0.0
 41
1.2
 51
0.0
  7
KANJI1
  0
LINE
  8
7
  6
CONTINUOUS
 62
     6
 10
27.0
 20
3.0
 11
77.0
 21
3.0
  0
LINE
  8
7
  6
CONTINUOUS
 62
     2
 10
78.25
 20
5.5
 11
78.25
 21
3.0
  0
LINE
  8
7
  6
CONTINUOUS
 62
     2
 10
12.0
 20
20.0
 11
32.5
 21
20.0
  0
LINE
  8
7
  6
CONTINUOUS
 62
     2
 10
12.0
 20
9.0
 11
32.5
 21
9.0
  0
LINE
  8
7
  6
CONTINUOUS
 62
     2
 10
56.5
 20
22.0
 11
56.5
 21
11.0
  0
LINE
  8
7
  6
CONTINUOUS
 62
     2
 10
64.5
 20
22.0
 11
64.5
 21
11.0
  0
LINE
  8
7
  6
CONTINUOUS
 62
     2
 10
44.5
 20
22.0
 11
44.5
 21
16.5
  0
LINE
  8
7
  6
CONTINUOUS
 62
     2
 10
29.5
 20
34.0
 11
29.5
 21
5.5
  0
LINE
  8
7
  6
CONTINUOUS
 62
     2
 10
40.5
 20
16.5
 11
40.5
 21
5.5
  0
LINE
  8
7
  6
CONTINUOUS
 62
     2
 10
48.5
 20
16.5
 11
48.5
 21
5.5
  0
LINE
  8
7
  6
LTYPE1
 62
     2
 10
51.5
 20
7.25
 11
53.5
 21
7.25
  0
LINE
  8
7
  6
LTYPE1
 62
     2
 10
53.5
 20
7.25
 11
53.5
 21
9.25
  0
LINE
  8
7
  6
LTYPE1
 62
     2
 10
53.5
 20
9.25
 11
51.5
 21
9.25
  0
LINE
  8
7
  6
LTYPE1
 62
     2
 10
51.5
 20
9.25
 11
51.5
 21
7.25
  0
TEXT
  8
7
  6
CONTINUOUS
 62
     4
 10
31.575
 20
26.75
 30
0.15
 40
1.25
  1
氏名
 50
90.0
 41
1.0
 51
0.0
  7
KANJI3
  0
TEXT
  8
7
  6
CONTINUOUS
 62
     4
 10
31.575
 20
20.7125
 30
0.5
 40
1.25
  1
年月日
 50
90.0
 41
1.0
 51
0.0
  7
KANJI4
  0
TEXT
  8
7
  6
CONTINUOUS
 62
     4
 10
31.575
 20
30.6875
 30
0.15
 40
1.25
  1
承認
 50
90.0
 41
1.0
 51
0.0
  7
KANJI3
  0
TEXT
  8
7
  6
CONTINUOUS
 62
     4
 10
33.0
 20
20.25
 30
0.0
 40
1.25
  1
熱処理
 50
0.0
 41
1.0
 51
0.0
  7
KANJI5
  0
TEXT
  8
7
  6
CONTINUOUS
 62
     4
 10
45.0
 20
20.25
 30
0.0
 40
1.25
  1
表面処理
 50
0.0
 41
1.0
 51
0.0
  7
KANJI5
  0
TEXT
  8
7
  6
CONTINUOUS
 62
     4
 10
57.0
 20
20.25
 30
0.0
 40
1.25
  1
台数
 50
0.0
 41
1.0
 51
0.0
  7
KANJI5
  0
TEXT
  8
7
  6
CONTINUOUS
 62
     4
 10
65.0
 20
20.25
 30
0.0
 40
1.25
  1
作成日付
 50
0.0
 41
1.0
 51
0.0
  7
KANJI5
  0
TEXT
  8
7
  6
CONTINUOUS
 62
     4
 10
73.0
 20
20.25
 30
0.0
 40
1.25
  1
名称
 50
0.0
 41
1.0
 51
0.0
  7
KANJI5
  0
TEXT
  8
7
  6
CONTINUOUS
 62
     4
 10
33.0
 20
14.75
 30
0.0
 40
1.25
  1
尺度
 50
0.0
 41
1.0
 51
0.0
  7
KANJI5
  0
TEXT
  8
7
  6
CONTINUOUS
 62
     4
 10
41.0
 20
14.75
 30
0.0
 40
1.25
  1
承認
 50
0.0
 41
1.0
 51
0.0
  7
KANJI5
  0
TEXT
  8
7
  6
CONTINUOUS
 62
     4
 10
49.0
 20
14.75
 30
0.0
 40
1.25
  1
検図
 50
0.0
 41
1.0
 51
0.0
  7
KANJI5
  0
TEXT
  8
7
  6
CONTINUOUS
 62
     4
 10
57.0
 20
14.75
 30
0.0
 40
1.25
  1
設計
 50
0.0
 41
1.0
 51
0.0
  7
KANJI5
  0
TEXT
  8
7
  6
CONTINUOUS
 62
     4
 10
65.0
 20
14.75
 30
0.0
 40
1.25
  1
製図
 50
0.0
 41
1.0
 51
0.0
  7
KANJI5
  0
TEXT
  8
7
  6
CONTINUOUS
 62
     4
 10
73.0
 20
14.75
 30
0.0
 40
1.25
  1
機名
 50
0.0
 41
1.0
 51
0.0
  7
KANJI5
  0
TEXT
  8
7
  6
CONTINUOUS
 62
     4
 10
31.575
 20
5.9375
 30
0.15
 40
1.25
  1
記号
 50
90.0
 41
1.0
 51
0.0
  7
KANJI3
  0
TEXT
  8
7
  6
CONTINUOUS
 62
     4
 10
73.0
 20
9.25
 30
0.0
 40
1.25
  1
図面番号
 50
0.0
 41
1.0
 51
0.0
  7
KANJI5
  0
TEXT
  8
7
  6
CONTINUOUS
 62
     4
 10
54.5
 20
7.625
 30
0.0
 40
1.25
  1
株式会社
 50
0.0
 41
1.0
 51
0.0
  7
KANJI5
  0
TEXT
  8
7
  6
CONTINUOUS
 62
     4
 10
60.5
 20
7.25
 30
0.0
 40
2.0
  1
昭和測器
 50
0.0
 41
1.125
 51
0.0
  7
KANJI6
  0
TEXT
  8
7
  6
CONTINUOUS
 62
     4
 10
31.575
 20
9.6875
 30
0.15
 40
1.25
  1
来歴・改訂記事
 50
90.0
 41
1.0
 51
0.0
  7
KANJI3
  0
TEXT
  8
7
  6
CONTINUOUS
 62
     1
 10
34.0
 20
8.25
 30
0.0
 40
2.5
  1
第３
 50
0.0
 41
1.0
 51
0.0
  7
KANJI2
  0
TEXT
  8
7
  6
CONTINUOUS
 62
     1
 10
34.0
 20
5.75
 30
0.0
 40
2.5
  1
角法
 50
0.0
 41
1.0
 51
0.0
  7
KANJI2
  0
CIRCLE
  8
7
  6
CONTINUOUS
 62
     6
 10
36.375
 20
13.5
 40
0.1
  0
CIRCLE
  8
7
  6
CONTINUOUS
 62
     6
 10
36.375
 20
12.25
 40
0.1
  0
TEXT
  8
7
  6
CONTINUOUS
 62
     6
 10
41.8625
 20
6.5125
 30
-0.5
 40
3.5
  1
Ａ４
 50
0.0
 41
0.857142857
 51
0.0
  7
KANJI7
  0
TEXT
  8
7
  6
CONTINUOUS
 62
     6
 10
89.125
 20
2.5
 30
0.0
 40
2.5
  1
４
 50
0.0
 41
1.2
 51
0.0
  7
KANJI1
  0
TEXT
  8
7
  6
CONTINUOUS
 62
     4
 10
33.25
 20
23.0
 30
0.0
 40
2.0
  1
番号
 50
0.0
 41
0.875
 51
0.0
  7
KANJI0
  0
TEXT
  8
7
  6
CONTINUOUS
 62
     4
 10
42.125
 20
23.0
 30
0.0
 40
2.0
  1
部　品　名
 50
0.0
 41
0.875
 51
0.0
  7
KANJI0
  0
LINE
  8
7
  6
CONTINUOUS
 62
     6
 10
52.0
 20
5.5
 11
52.0
 21
0.5
  0
LINE
  8
7
  6
CONTINUOUS
 62
     6
 10
27.0
 20
5.5
 11
27.0
 21
3.0
  0
LINE
  8
7
  6
CONTINUOUS
 62
     6
 10
77.0
 20
3.0
 11
77.0
 21
5.5
  0
LINE
  8
7
  6
CONTINUOUS
 62
     6
 10
32.0
 20
5.5
 11
32.0
 21
3.0
  0
LINE
  8
7
  6
CONTINUOUS
 62
     6
 10
37.0
 20
5.5
 11
37.0
 21
3.0
  0
LINE
  8
7
  6
CONTINUOUS
 62
     6
 10
42.0
 20
5.5
 11
42.0
 21
3.0
  0
LINE
  8
7
  6
CONTINUOUS
 62
     6
 10
47.0
 20
5.5
 11
47.0
 21
3.0
  0
LINE
  8
7
  6
CONTINUOUS
 62
     6
 10
72.0
 20
3.0
 11
72.0
 21
5.5
  0
LINE
  8
7
  6
CONTINUOUS
 62
     6
 10
67.0
 20
3.0
 11
67.0
 21
5.5
  0
LINE
  8
7
  6
CONTINUOUS
 62
     6
 10
62.0
 20
3.0
 11
62.0
 21
5.5
  0
LINE
  8
7
  6
CONTINUOUS
 62
     6
 10
57.0
 20
3.0
 11
57.0
 21
5.5
  0
LINE
  8
7
  6
CONTINUOUS
 62
     2
 10
12.0
 20
34.0
 11
32.5
 21
34.0
  0
LINE
  8
7
  6
CONTINUOUS
 62
     2
 10
12.0
 20
30.0
 11
32.5
 21
30.0
  0
LINE
  8
7
  6
CONTINUOUS
 62
     2
 10
32.5
 20
26.0
 11
32.5
 21
5.5
  0
LINE
  8
7
  6
CONTINUOUS
 62
     2
 10
32.5
 20
34.0
 11
32.5
 21
26.0
  0
LINE
  8
7
  6
CONTINUOUS
 62
     2
 10
37.5
 20
26.0
 11
37.5
 21
22.0
  0
LINE
  8
7
  6
CONTINUOUS
 62
     2
 10
37.5
 20
34.0
 11
37.5
 21
26.0
  0
LINE
  8
7
  6
CONTINUOUS
 62
     2
 10
55.5
 20
26.0
 11
55.5
 21
22.0
  0
LINE
  8
7
  6
CONTINUOUS
 62
     2
 10
55.5
 20
34.0
 11
55.5
 21
26.0
  0
LINE
  8
7
  6
CONTINUOUS
 62
     2
 10
32.5
 20
16.5
 11
72.5
 21
16.5
  0
LINE
  8
7
  6
CONTINUOUS
 62
     2
 10
32.5
 20
11.0
 11
72.5
 21
11.0
  0
LINE
  8
7
  6
CONTINUOUS
 62
     6
 10
12.0
 20
5.5
 11
72.5
 21
5.5
  0
LINE
  8
7
  6
CONTINUOUS
 62
     6
 10
72.5
 20
5.5
 11
94.5
 21
5.5
  0
TEXT
  8
7
  6
CONTINUOUS
 62
     4
 10
86.125
 20
23.0
 30
0.0
 40
2.0
  1
摘　　　要
 50
0.0
 41
0.875
 51
0.0
  7
KANJI0
  0
LINE
  8
7
  6
LTYPE2
 62
     2
 10
93.5
 20
11.0
 11
93.5
 21
5.5
  0
TEXT
  8
7
  6
CONTINUOUS
 62
     4
 10
72.5
 20
24.0
 30
-0.25
 40
1.5
  1
１セット分
 50
0.0
 41
0.666666667
 51
0.0
  7
KANJI8
  0
TEXT
  8
7
  6
CONTINUOUS
 62
     4
 10
67.0
 20
24.0
 30
0.0
 40
1.5
  1
１台分
 50
0.0
 41
1.0
 51
0.0
  7
KANJI9
  0
TEXT
  8
7
  6
CONTINUOUS
 62
     4
 10
68.0
 20
22.5
 30
0.0
 40
1.5
  1
個数
 50
0.0
 41
1.0
 51
0.0
  7
KANJI9
  0
TEXT
  8
7
  6
CONTINUOUS
 62
     4
 10
73.0
 20
22.5
 30
0.0
 40
1.5
  1
個数
 50
0.0
 41
1.0
 51
0.0
  7
KANJI9
  0
TEXT
  8
7
  6
CONTINUOUS
 62
     4
 10
77.75
 20
23.0
 30
0.0
 40
2.0
  1
総数
 50
0.0
 41
0.875
 51
0.0
  7
KANJI0
  0
LINE
  8
7
  6
CONTINUOUS
 62
     2
 10
67.0
 20
26.0
 11
67.0
 21
22.0
  0
LINE
  8
7
  6
CONTINUOUS
 62
     2
 10
67.0
 20
34.0
 11
67.0
 21
26.0
  0
LINE
  8
7
  6
CONTINUOUS
 62
     2
 10
72.0
 20
26.0
 11
72.0
 21
22.0
  0
LINE
  8
7
  6
CONTINUOUS
 62
     2
 10
72.0
 20
34.0
 11
72.0
 21
26.0
  0
LINE
  8
7
  6
CONTINUOUS
 62
     2
 10
77.0
 20
26.0
 11
77.0
 21
22.0
  0
LINE
  8
7
  6
CONTINUOUS
 62
     2
 10
77.0
 20
34.0
 11
77.0
 21
26.0
  0
LINE
  8
7
  6
CONTINUOUS
 62
     2
 10
82.0
 20
26.0
 11
82.0
 21
22.0
  0
LINE
  8
7
  6
CONTINUOUS
 62
     2
 10
82.0
 20
34.0
 11
82.0
 21
26.0
  0
LINE
  8
7
  6
CONTINUOUS
 62
     2
 10
72.5
 20
22.0
 11
72.5
 21
5.5
  0
TEXT
  8
7
  6
CONTINUOUS
 62
     4
 10
58.625
 20
23.0
 30
0.0
 40
2.0
  1
材　質
 50
0.0
 41
0.875
 51
0.0
  7
KANJI0
  0
LINE
  8
7
  6
CONTINUOUS
 62
     2
 10
12.5
 20
26.0
 11
32.5
 21
26.0
  0
TEXT
  8
6
  6
CONTINUOUS
 62
     5
 10
33.875
 20
12.0
 30
0.0
 40
2.0
  1
２
 50
0.0
 41
0.875
 51
0.0
  7
KANJI0
  0
TEXT
  8
6
  6
CONTINUOUS
 62
     5
 10
37.125
 20
12.0
 30
0.0
 40
2.0
  1
１
 50
0.0
 41
0.875
 51
0.0
  7
KANJI0
  0
TEXT
  8
6
  6
CONTINUOUS
 62
     5
 10
65.25
 20
18.5
 30
-0.25
 40
1.5
  1
２０１７．
 50
0.0
 41
0.833333333
 51
0.0
  7
KANJI10
  0
TEXT
  8
6
  6
CONTINUOUS
 62
     5
 10
66.5
 20
17.0
 30
-0.25
 40
1.5
  1
０７．１３
 50
0.0
 41
0.833333333
 51
0.0
  7
KANJI10
  0
TEXT
  8
6
  6
CONTINUOUS
 62
     5
 10
83.075
 20
17.5
 30
0.05
 40
2.0
  1
外観図
 50
0.0
 41
0.875
 51
0.0
  7
KANJI11
  0
TEXT
  8
5
  6
CONTINUOUS
 62
     5
 10
75.0
 20
35.0
 30
0.05
 40
2.0
  1
１，２，５，１０　ＭＰａ
 50
0.0
 41
0.875
 51
0.0
  7
KANJI11
  0
LINE
  8
0
  6
CONTINUOUS
 62
     2
 10
40.453221403
 20
81.714997502
 11
40.899114063
 21
75.026607604
  0
LINE
  8
0
  6
CONTINUOUS
 62
     2
 10
40.0
 20
82.5
 11
40.453221403
 21
81.714997502
  0
POLYLINE
  8
0
  6
CONTINUOUS
 62
     1
 66
     1
  0
VERTEX
  8
0
  6
CONTINUOUS
 62
     1
 10
40.0
 20
82.5
  0
VERTEX
  8
0
  6
CONTINUOUS
 62
     1
 10
40.475107174
 20
75.373392396
  0
VERTEX
  8
0
  6
CONTINUOUS
 62
     1
 10
40.874221237
 20
75.0
  0
SEQEND
  0
LINE
  8
0
  6
CONTINUOUS
 62
     1
 10
50.0
 20
82.5
 11
49.524892826
 21
75.373392396
  0
LINE
  8
0
  6
CONTINUOUS
 62
     1
 10
40.874221237
 20
75.0
 11
49.125778763
 21
75.0
  0
LINE
  8
0
  6
CONTINUOUS
 62
     1
 10
49.524892826
 20
75.373392396
 11
49.125778763
 21
75.0
  0
LINE
  8
0
  6
CONTINUOUS
 62
     2
 10
50.0
 20
82.5
 11
49.546778597
 21
81.714997502
  0
LINE
  8
0
  6
CONTINUOUS
 62
     2
 10
49.546778597
 20
81.714997502
 11
49.100885937
 21
75.026607604
  0
LINE
  8
0
  6
CONTINUOUS
 62
     1
 10
51.5
 20
89.5
 11
51.5
 21
82.5
  0
LINE
  8
0
  6
CONTINUOUS
 62
     1
 10
38.0
 20
87.55
 11
38.0
 21
89.0
  0
LINE
  8
0
  6
CONTINUOUS
 62
     1
 10
38.0
 20
89.0
 11
38.5
 21
89.0
  0
LINE
  8
0
  6
CONTINUOUS
 62
     1
 10
38.0
 20
84.45
 11
38.0
 21
83.0
  0
LINE
  8
0
  6
CONTINUOUS
 62
     1
 10
38.0
 20
83.0
 11
38.5
 21
83.0
  0
POLYLINE
  8
0
  6
CONTINUOUS
 62
     1
 66
     1
  0
VERTEX
  8
0
  6
CONTINUOUS
 62
     1
 10
38.0
 20
83.0
  0
VERTEX
  8
0
  6
CONTINUOUS
 62
     1
 10
35.5
 20
83.0
  0
VERTEX
  8
0
  6
CONTINUOUS
 62
     1
 10
35.0
 20
83.5
  0
SEQEND
  0
LINE
  8
0
  6
CONTINUOUS
 62
     1
 10
35.5
 20
89.0
 11
38.0
 21
89.0
  0
LINE
  8
0
  6
CONTINUOUS
 62
     1
 10
35.5
 20
89.0
 11
35.0
 21
88.5
  0
LINE
  8
0
  6
CONTINUOUS
 62
     1
 10
35.0
 20
85.5
 11
36.5
 21
85.5
  0
LINE
  8
0
  6
CONTINUOUS
 62
     1
 10
36.5
 20
85.5
 11
36.5
 21
86.5
  0
LINE
  8
0
  6
CONTINUOUS
 62
     1
 10
36.5
 20
86.5
 11
35.0
 21
86.5
  0
LINE
  8
0
  6
CONTINUOUS
 62
     1
 10
35.0
 20
86.5
 11
35.0
 21
88.5
  0
LINE
  8
0
  6
CONTINUOUS
 62
     1
 10
35.0
 20
83.5
 11
35.0
 21
85.5
  0
LINE
  8
0
  6
CONTINUOUS
 62
     1
 10
35.5
 20
83.0
 11
35.5
 21
85.5
  0
LINE
  8
0
  6
CONTINUOUS
 62
     1
 10
35.5
 20
86.5
 11
35.5
 21
89.0
  0
LINE
  8
0
  6
CONTINUOUS
 62
     1
 10
38.0
 20
83.0
 11
38.0
 21
89.0
  0
LINE
  8
0
  6
CONTINUOUS
 62
     1
 10
37.0
 20
89.5
 11
37.0
 21
103.0
  0
LINE
  8
0
  6
CONTINUOUS
 62
     1
 10
53.0
 20
89.5
 11
53.0
 21
103.0
  0
LINE
  8
0
  6
CONTINUOUS
 62
     1
 10
37.0
 20
103.0
 11
37.0
 21
111.5
  0
LINE
  8
0
  6
CONTINUOUS
 62
     1
 10
53.0
 20
103.0
 11
53.0
 21
111.5
  0
POLYLINE
  8
0
  6
CONTINUOUS
 62
     1
 66
     1
  0
VERTEX
  8
0
  6
CONTINUOUS
 62
     1
 10
37.5
 20
111.5
  0
VERTEX
  8
0
  6
CONTINUOUS
 62
     1
 10
37.5
 20
113.5
  0
VERTEX
  8
0
  6
CONTINUOUS
 62
     1
 10
38.0
 20
114.0
  0
SEQEND
  0
LINE
  8
0
  6
CONTINUOUS
 62
     1
 10
52.5
 20
113.5
 11
52.5
 21
111.5
  0
LINE
  8
0
  6
CONTINUOUS
 62
     1
 10
52.5
 20
113.5
 11
52.0
 21
114.0
  0
LINE
  8
0
  6
CONTINUOUS
 62
     1
 10
38.0
 20
114.0
 11
52.0
 21
114.0
  0
LINE
  8
0
  6
CONTINUOUS
 62
     1
 10
37.0
 20
111.5
 11
53.0
 21
111.5
  0
LINE
  8
0
  6
CONTINUOUS
 62
     1
 10
37.0
 20
103.0
 11
53.0
 21
103.0
  0
LINE
  8
0
  6
CONTINUOUS
 62
     1
 10
37.0
 20
89.5
 11
53.0
 21
89.5
  0
LINE
  8
0
  6
CONTINUOUS
 62
     1
 10
38.5
 20
82.5
 11
38.5
 21
89.5
  0
LINE
  8
0
  6
CONTINUOUS
 62
     1
 10
51.5
 20
82.5
 11
38.5
 21
82.5
  0
LINE
  8
0
  6
CONTINUOUS
 62
     1
 10
49.9476665
 20
81.714997502
 11
40.0523335
 21
81.714997502
  0
LINE
  8
0
  6
CONTINUOUS
 62
     1
 10
40.475107174
 20
75.373392396
 11
49.524892826
 21
75.373392396
  0
LINE
  8
0
  6
CONTINUOUS
 62
     1
 10
45.0
 20
89.5
 11
45.0
 21
82.5
  0
LINE
  8
0
  6
CONTINUOUS
 62
     2
 10
45.0
 20
89.5
 11
51.5
 21
82.5
  0
LINE
  8
0
  6
CONTINUOUS
 62
     2
 10
51.5
 20
89.5
 11
45.0
 21
82.5
  0
LINE
  8
0
  6
CONTINUOUS
 62
     2
 10
38.5
 20
82.5
 11
45.0
 21
89.5
  0
LINE
  8
0
  6
CONTINUOUS
 62
     2
 10
38.5
 20
89.5
 11
45.0
 21
82.5
  0
LINE
  8
0
  6
LTYPE3
 62
     2
 10
40.5
 20
86.0
 11
32.5
 21
86.0
  0
CIRCLE
  8
0
  6
CONTINUOUS
 62
     1
 10
45.0
 20
55.0
 40
4.9476665
  0
CIRCLE
  8
0
  6
CONTINUOUS
 62
     1
 10
45.0
 20
55.0
 40
4.524892826
  0
CIRCLE
  8
0
  6
CONTINUOUS
 62
     2
 10
45.0
 20
55.0
 40
4.100885937
  0
POLYLINE
  8
0
  6
CONTINUOUS
 62
     1
 66
     1
 70
     1
  0
VERTEX
  8
0
  6
CONTINUOUS
 62
     1
 10
45.0
 20
62.505553499
  0
VERTEX
  8
0
  6
CONTINUOUS
 62
     1
 10
38.5
 20
58.75277675
  0
VERTEX
  8
0
  6
CONTINUOUS
 62
     1
 10
38.5
 20
51.24722325
  0
VERTEX
  8
0
  6
CONTINUOUS
 62
     1
 10
45.0
 20
47.494446501
  0
VERTEX
  8
0
  6
CONTINUOUS
 62
     1
 10
51.5
 20
51.24722325
  0
VERTEX
  8
0
  6
CONTINUOUS
 62
     1
 10
51.5
 20
58.75277675
  0
SEQEND
  0
CIRCLE
  8
0
  6
CONTINUOUS
 62
     1
 10
45.0
 20
55.0
 40
1.5
  0
LINE
  8
0
  6
CONTINUOUS
 62
     1
 10
38.0
 20
56.55
 11
38.0
 21
58.0
  0
LINE
  8
0
  6
CONTINUOUS
 62
     1
 10
38.0
 20
58.0
 11
38.5
 21
58.0
  0
LINE
  8
0
  6
CONTINUOUS
 62
     1
 10
38.0
 20
53.45
 11
38.0
 21
52.0
  0
LINE
  8
0
  6
CONTINUOUS
 62
     1
 10
38.0
 20
52.0
 11
38.5
 21
52.0
  0
POLYLINE
  8
0
  6
CONTINUOUS
 62
     1
 66
     1
  0
VERTEX
  8
0
  6
CONTINUOUS
 62
     1
 10
38.0
 20
52.0
  0
VERTEX
  8
0
  6
CONTINUOUS
 62
     1
 10
35.5
 20
52.0
  0
VERTEX
  8
0
  6
CONTINUOUS
 62
     1
 10
35.0
 20
52.5
  0
SEQEND
  0
LINE
  8
0
  6
CONTINUOUS
 62
     1
 10
35.5
 20
58.0
 11
38.0
 21
58.0
  0
LINE
  8
0
  6
CONTINUOUS
 62
     1
 10
35.5
 20
58.0
 11
35.0
 21
57.5
  0
LINE
  8
0
  6
CONTINUOUS
 62
     1
 10
38.0
 20
52.0
 11
38.0
 21
58.0
  0
ARC
  8
0
  6
CONTINUOUS
 62
     1
 10
45.0
 20
55.0
 40
8.0
 50
202.024312837
 51
157.975687163
  0
LINE
  8
0
  6
CONTINUOUS
 62
     1
 10
35.5
 20
52.0
 11
35.5
 21
58.0
  0
LINE
  8
0
  6
CONTINUOUS
 62
     1
 10
35.0
 20
52.5
 11
35.0
 21
57.5
  0
LINE
  8
0
  6
LTYPE3
 62
     2
 10
45.0
 20
44.5
 11
45.0
 21
65.5
  0
LINE
  8
0
  6
LTYPE3
 62
     2
 10
32.5
 20
55.0
 11
55.5
 21
55.0
  0
CIRCLE
  8
0
  6
CONTINUOUS
 62
     1
 10
36.5
 20
55.0
 40
0.4
  0
LINE
  8
0
  6
LTYPE2
 62
     2
 10
36.1
 20
89.0
 11
36.1
 21
86.5
  0
LINE
  8
0
  6
LTYPE2
 62
     2
 10
36.1
 20
85.5
 11
36.1
 21
83.0
  0
LINE
  8
0
  6
LTYPE2
 62
     2
 10
36.9
 20
83.0
 11
36.9
 21
89.0
  0
LINE
  8
0
  6
LTYPE3
 62
     2
 10
36.5
 20
82.0
 11
36.5
 21
90.0
  0
LINE
  8
0
  6
CONTINUOUS
 62
     1
 10
41.258342613
 20
111.5
 11
41.258342613
 21
113.5
  0
LINE
  8
0
  6
CONTINUOUS
 62
     1
 10
41.258342613
 20
113.5
 11
42.401923789
 21
114.0
  0
LINE
  8
0
  6
CONTINUOUS
 62
     1
 10
47.598076211
 20
114.0
 11
48.741657387
 21
113.5
  0
LINE
  8
0
  6
CONTINUOUS
 62
     1
 10
48.741657387
 20
113.5
 11
48.741657387
 21
111.5
  0
LINE
  8
0
  6
CONTINUOUS
 62
     1
 10
48.741657387
 20
113.5
 11
52.5
 21
113.5
  0
LINE
  8
0
  6
CONTINUOUS
 62
     1
 10
37.5
 20
113.5
 11
41.258342613
 21
113.5
  0
LINE
  8
0
  6
CONTINUOUS
 62
     2
 10
41.258342613
 20
111.5
 11
48.093400825
 21
113.783432683
  0
LINE
  8
0
  6
CONTINUOUS
 62
     2
 10
48.741657387
 20
111.5
 11
41.906599175
 21
113.783432683
  0
LINE
  8
5
  6
CONTINUOUS
 62
     2
 10
49.625778763
 20
75.0
 11
61.0
 21
75.0
  0
LINE
  8
5
  6
CONTINUOUS
 62
     2
 10
60.5
 20
75.0
 11
60.823523806
 21
76.207407283
  0
LINE
  8
5
  6
CONTINUOUS
 62
     2
 10
60.5
 20
75.0
 11
60.176476194
 21
76.207407283
  0
LINE
  8
5
  6
CONTINUOUS
 62
     2
 10
60.5
 20
75.0
 11
60.5
 21
81.714997502
  0
LINE
  8
5
  6
CONTINUOUS
 62
     2
 10
60.5
 20
81.714997502
 11
60.176476194
 21
80.50759022
  0
LINE
  8
5
  6
CONTINUOUS
 62
     2
 10
60.5
 20
81.714997502
 11
60.823523806
 21
80.50759022
  0
LINE
  8
5
  6
CONTINUOUS
 62
     2
 10
50.4476665
 20
81.714997502
 11
61.0
 21
81.714997502
  0
TEXT
  8
5
  6
CONTINUOUS
 62
     5
 10
60.0
 20
75.682498751
 30
0.05
 40
2.0
  1
６．５
 50
90.0
 41
0.875
 51
0.0
  7
KANJI11
  0
LINE
  8
5
  6
CONTINUOUS
 62
     2
 10
61.0
 20
75.0
 11
66.0
 21
75.0
  0
LINE
  8
5
  6
CONTINUOUS
 62
     2
 10
65.5
 20
75.0
 11
65.823523806
 21
76.207407283
  0
LINE
  8
5
  6
CONTINUOUS
 62
     2
 10
65.5
 20
75.0
 11
65.176476194
 21
76.207407283
  0
LINE
  8
5
  6
CONTINUOUS
 62
     2
 10
65.5
 20
75.0
 11
65.5
 21
82.5
  0
LINE
  8
5
  6
CONTINUOUS
 62
     2
 10
65.5
 20
82.5
 11
65.176476194
 21
81.292592717
  0
LINE
  8
5
  6
CONTINUOUS
 62
     2
 10
65.5
 20
82.5
 11
65.823523806
 21
81.292592717
  0
LINE
  8
5
  6
CONTINUOUS
 62
     2
 10
52.0
 20
82.5
 11
66.0
 21
82.5
  0
TEXT
  8
5
  6
CONTINUOUS
 62
     5
 10
65.0
 20
76.075
 30
0.05
 40
2.0
  1
７．５
 50
90.0
 41
0.875
 51
0.0
  7
KANJI11
  0
LINE
  8
5
  6
CONTINUOUS
 62
     2
 10
65.5
 20
82.5
 11
65.823523806
 21
83.707407283
  0
LINE
  8
5
  6
CONTINUOUS
 62
     2
 10
65.5
 20
82.5
 11
65.176476194
 21
83.707407283
  0
LINE
  8
5
  6
CONTINUOUS
 62
     2
 10
65.5
 20
82.5
 11
65.5
 21
89.5
  0
LINE
  8
5
  6
CONTINUOUS
 62
     2
 10
65.5
 20
89.5
 11
65.176476194
 21
88.292592717
  0
LINE
  8
5
  6
CONTINUOUS
 62
     2
 10
65.5
 20
89.5
 11
65.823523806
 21
88.292592717
  0
LINE
  8
5
  6
CONTINUOUS
 62
     2
 10
53.5
 20
89.5
 11
66.0
 21
89.5
  0
TEXT
  8
5
  6
CONTINUOUS
 62
     5
 10
65.0
 20
85.125
 30
0.05
 40
2.0
  1
７
 50
90.0
 41
0.875
 51
0.0
  7
KANJI11
  0
LINE
  8
5
  6
CONTINUOUS
 62
     2
 10
66.0
 20
75.0
 11
71.0
 21
75.0
  0
LINE
  8
5
  6
CONTINUOUS
 62
     2
 10
70.5
 20
75.0
 11
70.823523806
 21
76.207407283
  0
LINE
  8
5
  6
CONTINUOUS
 62
     2
 10
70.5
 20
75.0
 11
70.176476194
 21
76.207407283
  0
LINE
  8
5
  6
CONTINUOUS
 62
     2
 10
70.5
 20
75.0
 11
70.5
 21
111.5
  0
LINE
  8
5
  6
CONTINUOUS
 62
     2
 10
70.5
 20
111.5
 11
70.176476194
 21
110.292592717
  0
LINE
  8
5
  6
CONTINUOUS
 62
     2
 10
70.5
 20
111.5
 11
70.823523806
 21
110.292592717
  0
LINE
  8
5
  6
CONTINUOUS
 62
     2
 10
53.5
 20
111.5
 11
71.0
 21
111.5
  0
TEXT
  8
5
  6
CONTINUOUS
 62
     5
 10
70.0
 20
89.675
 30
0.05
 40
2.0
  1
３６．５
 50
90.0
 41
0.875
 51
0.0
  7
KANJI11
  0
LINE
  8
5
  6
CONTINUOUS
 62
     2
 10
70.5
 20
111.5
 11
70.823523806
 21
112.707407283
  0
LINE
  8
5
  6
CONTINUOUS
 62
     2
 10
70.5
 20
111.5
 11
70.176476194
 21
112.707407283
  0
LINE
  8
5
  6
CONTINUOUS
 62
     2
 10
70.5
 20
111.5
 11
70.5
 21
114.0
  0
LINE
  8
5
  6
CONTINUOUS
 62
     2
 10
70.5
 20
114.0
 11
70.176476194
 21
112.792592717
  0
LINE
  8
5
  6
CONTINUOUS
 62
     2
 10
70.5
 20
114.0
 11
70.823523806
 21
112.792592717
  0
LINE
  8
5
  6
CONTINUOUS
 62
     2
 10
52.5
 20
114.0
 11
71.0
 21
114.0
  0
LINE
  8
0
  6
CONTINUOUS
 62
     1
 10
38.0
 20
120.5
 11
37.5
 21
120.0
  0
LINE
  8
0
  6
CONTINUOUS
 62
     1
 10
37.5
 20
120.0
 11
37.5
 21
115.0
  0
LINE
  8
0
  6
CONTINUOUS
 62
     1
 10
38.0
 20
114.5
 11
37.5
 21
115.0
  0
LINE
  8
0
  6
CONTINUOUS
 62
     1
 10
38.0
 20
114.5
 11
52.0
 21
114.5
  0
LINE
  8
0
  6
CONTINUOUS
 62
     1
 10
52.5
 20
115.0
 11
52.0
 21
114.5
  0
LINE
  8
0
  6
CONTINUOUS
 62
     1
 10
52.5
 20
115.0
 11
52.5
 21
120.0
  0
LINE
  8
0
  6
CONTINUOUS
 62
     1
 10
52.0
 20
120.5
 11
52.5
 21
120.0
  0
LINE
  8
0
  6
CONTINUOUS
 62
     1
 10
42.0
 20
114.5
 11
42.0
 21
120.5
  0
LINE
  8
0
  6
CONTINUOUS
 62
     1
 10
43.5
 20
114.5
 11
43.5
 21
120.5
  0
LINE
  8
0
  6
CONTINUOUS
 62
     1
 10
52.5
 20
120.0
 11
45.0
 21
120.0
  0
LINE
  8
0
  6
CONTINUOUS
 62
     1
 10
43.5
 20
120.5
 11
38.0
 21
120.5
  0
LINE
  8
0
  6
CONTINUOUS
 62
     1
 10
52.0
 20
120.5
 11
45.0
 21
120.5
  0
LINE
  8
0
  6
CONTINUOUS
 62
     1
 10
52.5
 20
115.0
 11
45.0
 21
115.0
  0
LINE
  8
0
  6
CONTINUOUS
 62
     1
 10
38.126136458
 20
120.0
 11
38.67544468
 21
120.5
  0
LINE
  8
0
  6
CONTINUOUS
 62
     1
 10
38.126136458
 20
115.0
 11
38.67544468
 21
114.5
  0
LINE
  8
0
  6
CONTINUOUS
 62
     1
 10
38.126136458
 20
115.0
 11
38.126136458
 21
120.0
  0
LINE
  8
0
  6
CONTINUOUS
 62
     1
 10
38.126136458
 20
120.0
 11
37.5
 21
120.0
  0
LINE
  8
0
  6
CONTINUOUS
 62
     1
 10
43.5
 20
120.0
 11
42.0
 21
120.0
  0
LINE
  8
0
  6
CONTINUOUS
 62
     1
 10
38.126136458
 20
115.0
 11
37.5
 21
115.0
  0
LINE
  8
0
  6
CONTINUOUS
 62
     1
 10
43.5
 20
115.0
 11
42.0
 21
115.0
  0
LINE
  8
0
  6
CONTINUOUS
 62
     1
 10
42.0
 20
114.7
 11
42.0
 21
120.3
  0
LINE
  8
0
  6
CONTINUOUS
 62
     2
 10
42.0
 20
117.5
 11
39.2
 21
117.5
  0
LINE
  8
0
  6
CONTINUOUS
 62
     1
 10
39.0
 20
115.0
 11
39.0
 21
120.0
  0
LINE
  8
0
  6
CONTINUOUS
 62
     1
 10
39.2
 20
114.7
 11
39.2
 21
120.3
  0
LINE
  8
0
  6
CONTINUOUS
 62
     1
 10
42.0
 20
120.3
 11
39.2
 21
120.3
  0
LINE
  8
0
  6
CONTINUOUS
 62
     1
 10
39.0
 20
120.0
 11
39.2
 21
120.3
  0
LINE
  8
0
  6
CONTINUOUS
 62
     1
 10
42.0
 20
114.7
 11
39.2
 21
114.7
  0
LINE
  8
0
  6
CONTINUOUS
 62
     1
 10
39.2
 20
114.7
 11
39.0
 21
115.0
  0
LINE
  8
0
  6
CONTINUOUS
 62
     2
 10
42.0
 20
115.1
 11
39.2
 21
115.1
  0
LINE
  8
0
  6
CONTINUOUS
 62
     2
 10
42.0
 20
119.9
 11
39.2
 21
119.9
  0
LINE
  8
0
  6
CONTINUOUS
 62
     2
 10
42.0
 20
115.6
 11
39.2
 21
115.6
  0
LINE
  8
0
  6
CONTINUOUS
 62
     2
 10
42.0
 20
119.4
 11
39.2
 21
119.4
  0
LINE
  8
0
  6
CONTINUOUS
 62
     2
 10
42.0
 20
118.8
 11
39.2
 21
118.8
  0
LINE
  8
0
  6
CONTINUOUS
 62
     2
 10
42.0
 20
116.2
 11
39.2
 21
116.2
  0
LINE
  8
0
  6
CONTINUOUS
 62
     2
 10
42.0
 20
118.2
 11
39.2
 21
118.2
  0
LINE
  8
0
  6
CONTINUOUS
 62
     2
 10
42.0
 20
116.8
 11
39.2
 21
116.8
  0
LINE
  8
0
  6
CONTINUOUS
 62
     1
 10
45.0
 20
114.5
 11
45.0
 21
120.5
  0
LINE
  8
0
  6
CONTINUOUS
 62
     2
 10
43.5
 20
118.6
 11
45.0
 21
118.6
  0
LINE
  8
0
  6
CONTINUOUS
 62
     2
 10
45.0
 20
116.4
 11
43.5
 21
116.4
  0
LINE
  8
0
  6
CONTINUOUS
 62
     1
 10
43.5
 20
116.0
 11
45.0
 21
116.0
  0
LINE
  8
0
  6
CONTINUOUS
 62
     1
 10
43.5
 20
119.0
 11
45.0
 21
119.0
  0
POLYLINE
  8
0
  6
CONTINUOUS
 62
     2
 66
     1
 70
     1
  0
VERTEX
  8
0
  6
CONTINUOUS
 62
     2
 10
50.187453484
 20
119.0
 42
0.022636482
  0
VERTEX
  8
0
  6
CONTINUOUS
 62
     2
 10
50.061444051
 20
118.994292047
 42
0.022613576
  0
VERTEX
  8
0
  6
CONTINUOUS
 62
     2
 10
49.936393626
 20
118.97721163
 42
0.022565327
  0
VERTEX
  8
0
  6
CONTINUOUS
 62
     2
 10
49.813253919
 20
118.948888739
 42
0.022493512
  0
VERTEX
  8
0
  6
CONTINUOUS
 62
     2
 10
49.692962095
 20
118.909538931
 42
0.02240074
  0
VERTEX
  8
0
  6
CONTINUOUS
 62
     2
 10
49.57643365
 20
118.859461681
 42
0.022290311
  0
VERTEX
  8
0
  6
CONTINUOUS
 62
     2
 10
49.464555435
 20
118.799038106
 42
0.022166059
  0
VERTEX
  8
0
  6
CONTINUOUS
 62
     2
 10
49.358178911
 20
118.728728066
 42
0.02203217
  0
VERTEX
  8
0
  6
CONTINUOUS
 62
     2
 10
49.258113666
 20
118.649066665
 42
0.02189301
  0
VERTEX
  8
0
  6
CONTINUOUS
 62
     2
 10
49.165121259
 20
118.560660172
 42
0.021752955
  0
VERTEX
  8
0
  6
CONTINUOUS
 62
     2
 10
49.079909418
 20
118.464181415
 42
0.021616248
  0
VERTEX
  8
0
  6
CONTINUOUS
 62
     2
 10
49.003126655
 20
118.360364655
 42
0.021486873
  0
VERTEX
  8
0
  6
CONTINUOUS
 62
     2
 10
48.935357335
 20
118.25
 42
0.021368463
  0
VERTEX
  8
0
  6
CONTINUOUS
 62
     2
 10
48.877117223
 20
118.133927393
 42
0.021264224
  0
VERTEX
  8
0
  6
CONTINUOUS
 62
     2
 10
48.82884956
 20
118.013030215
 42
0.021176886
  0
VERTEX
  8
0
  6
CONTINUOUS
 62
     2
 10
48.790921694
 20
117.888228568
 42
0.021108671
  0
VERTEX
  8
0
  6
CONTINUOUS
 62
     2
 10
48.763622278
 20
117.760472267
 42
0.021061273
  0
VERTEX
  8
0
  6
CONTINUOUS
 62
     2
 10
48.747159077
 20
117.630733614
 42
0.021035849
  0
VERTEX
  8
0
  6
CONTINUOUS
 62
     2
 10
48.741657387
 20
117.5
 42
0.021033009
  0
VERTEX
  8
0
  6
CONTINUOUS
 62
     2
 10
48.747159077
 20
117.369266386
 42
0.021052824
  0
VERTEX
  8
0
  6
CONTINUOUS
 62
     2
 10
48.763622278
 20
117.239527733
 42
0.021094816
  0
VERTEX
  8
0
  6
CONTINUOUS
 62
     2
 10
48.790921694
 20
117.111771432
 42
0.021157964
  0
VERTEX
  8
0
  6
CONTINUOUS
 62
     2
 10
48.82884956
 20
116.986969785
 42
0.021240709
  0
VERTEX
  8
0
  6
CONTINUOUS
 62
     2
 10
48.877117223
 20
116.866072607
 42
0.02134096
  0
VERTEX
  8
0
  6
CONTINUOUS
 62
     2
 10
48.935357335
 20
116.75
 42
0.02145611
  0
VERTEX
  8
0
  6
CONTINUOUS
 62
     2
 10
49.003126655
 20
116.639635345
 42
0.021583068
  0
VERTEX
  8
0
  6
CONTINUOUS
 62
     2
 10
49.079909418
 20
116.535818585
 42
0.021718304
  0
VERTEX
  8
0
  6
CONTINUOUS
 62
     2
 10
49.165121259
 20
116.439339828
 42
0.021857911
  0
VERTEX
  8
0
  6
CONTINUOUS
 62
     2
 10
49.258113666
 20
116.350933335
 42
0.021997703
  0
VERTEX
  8
0
  6
CONTINUOUS
 62
     2
 10
49.358178911
 20
116.271271934
 42
0.022133321
  0
VERTEX
  8
0
  6
CONTINUOUS
 62
     2
 10
49.464555435
 20
116.200961894
 42
0.022260385
  0
VERTEX
  8
0
  6
CONTINUOUS
 62
     2
 10
49.57643365
 20
116.140538319
 42
0.022374646
  0
VERTEX
  8
0
  6
CONTINUOUS
 62
     2
 10
49.692962095
 20
116.090461069
 42
0.022472166
  0
VERTEX
  8
0
  6
CONTINUOUS
 62
     2
 10
49.813253919
 20
116.051111261
 42
0.022549494
  0
VERTEX
  8
0
  6
CONTINUOUS
 62
     2
 10
49.936393626
 20
116.02278837
 42
0.022603835
  0
VERTEX
  8
0
  6
CONTINUOUS
 62
     2
 10
50.061444051
 20
116.005707953
 42
0.022633194
  0
VERTEX
  8
0
  6
CONTINUOUS
 62
     2
 10
50.187453484
 20
116.0
 42
0.022636482
  0
VERTEX
  8
0
  6
CONTINUOUS
 62
     2
 10
50.313462916
 20
116.005707953
 42
0.022613576
  0
VERTEX
  8
0
  6
CONTINUOUS
 62
     2
 10
50.438513341
 20
116.02278837
 42
0.022565327
  0
VERTEX
  8
0
  6
CONTINUOUS
 62
     2
 10
50.561653049
 20
116.051111261
 42
0.022493512
  0
VERTEX
  8
0
  6
CONTINUOUS
 62
     2
 10
50.681944872
 20
116.090461069
 42
0.02240074
  0
VERTEX
  8
0
  6
CONTINUOUS
 62
     2
 10
50.798473317
 20
116.140538319
 42
0.022290311
  0
VERTEX
  8
0
  6
CONTINUOUS
 62
     2
 10
50.910351532
 20
116.200961894
 42
0.022166059
  0
VERTEX
  8
0
  6
CONTINUOUS
 62
     2
 10
51.016728057
 20
116.271271934
 42
0.02203217
  0
VERTEX
  8
0
  6
CONTINUOUS
 62
     2
 10
51.116793301
 20
116.350933335
 42
0.02189301
  0
VERTEX
  8
0
  6
CONTINUOUS
 62
     2
 10
51.209785708
 20
116.439339828
 42
0.021752955
  0
VERTEX
  8
0
  6
CONTINUOUS
 62
     2
 10
51.29499755
 20
116.535818585
 42
0.021616248
  0
VERTEX
  8
0
  6
CONTINUOUS
 62
     2
 10
51.371780312
 20
116.639635345
 42
0.021486873
  0
VERTEX
  8
0
  6
CONTINUOUS
 62
     2
 10
51.439549632
 20
116.75
 42
0.021368463
  0
VERTEX
  8
0
  6
CONTINUOUS
 62
     2
 10
51.497789745
 20
116.866072607
 42
0.021264224
  0
VERTEX
  8
0
  6
CONTINUOUS
 62
     2
 10
51.546057407
 20
116.986969785
 42
0.021176886
  0
VERTEX
  8
0
  6
CONTINUOUS
 62
     2
 10
51.583985273
 20
117.111771432
 42
0.021108671
  0
VERTEX
  8
0
  6
CONTINUOUS
 62
     2
 10
51.611284689
 20
117.239527733
 42
0.021061273
  0
VERTEX
  8
0
  6
CONTINUOUS
 62
     2
 10
51.62774789
 20
117.369266386
 42
0.021035849
  0
VERTEX
  8
0
  6
CONTINUOUS
 62
     2
 10
51.633249581
 20
117.5
 42
0.021033009
  0
VERTEX
  8
0
  6
CONTINUOUS
 62
     2
 10
51.62774789
 20
117.630733614
 42
0.021052824
  0
VERTEX
  8
0
  6
CONTINUOUS
 62
     2
 10
51.611284689
 20
117.760472267
 42
0.021094816
  0
VERTEX
  8
0
  6
CONTINUOUS
 62
     2
 10
51.583985273
 20
117.888228568
 42
0.021157964
  0
VERTEX
  8
0
  6
CONTINUOUS
 62
     2
 10
51.546057407
 20
118.013030215
 42
0.021240709
  0
VERTEX
  8
0
  6
CONTINUOUS
 62
     2
 10
51.497789745
 20
118.133927393
 42
0.02134096
  0
VERTEX
  8
0
  6
CONTINUOUS
 62
     2
 10
51.439549632
 20
118.25
 42
0.02145611
  0
VERTEX
  8
0
  6
CONTINUOUS
 62
     2
 10
51.371780312
 20
118.360364655
 42
0.021583068
  0
VERTEX
  8
0
  6
CONTINUOUS
 62
     2
 10
51.29499755
 20
118.464181415
 42
0.021718304
  0
VERTEX
  8
0
  6
CONTINUOUS
 62
     2
 10
51.209785708
 20
118.560660172
 42
0.021857911
  0
VERTEX
  8
0
  6
CONTINUOUS
 62
     2
 10
51.116793301
 20
118.649066665
 42
0.021997703
  0
VERTEX
  8
0
  6
CONTINUOUS
 62
     2
 10
51.016728057
 20
118.728728066
 42
0.022133321
  0
VERTEX
  8
0
  6
CONTINUOUS
 62
     2
 10
50.910351532
 20
118.799038106
 42
0.022260385
  0
VERTEX
  8
0
  6
CONTINUOUS
 62
     2
 10
50.798473317
 20
118.859461681
 42
0.022374646
  0
VERTEX
  8
0
  6
CONTINUOUS
 62
     2
 10
50.681944872
 20
118.909538931
 42
0.022472166
  0
VERTEX
  8
0
  6
CONTINUOUS
 62
     2
 10
50.561653049
 20
118.948888739
 42
0.022549494
  0
VERTEX
  8
0
  6
CONTINUOUS
 62
     2
 10
50.438513341
 20
118.97721163
 42
0.022603835
  0
VERTEX
  8
0
  6
CONTINUOUS
 62
     2
 10
50.313462916
 20
118.994292047
 42
0.022633194
  0
SEQEND
  8
0
  6
CONTINUOUS
 62
     2
  0
POLYLINE
  8
0
  6
CONTINUOUS
 62
     1
 66
     1
 70
     1
  0
VERTEX
  8
0
  6
CONTINUOUS
 62
     1
 10
50.284865899
 20
118.6
 42
0.02140481
  0
VERTEX
  8
0
  6
CONTINUOUS
 62
     1
 10
50.1871311
 20
118.595814168
 42
0.021415537
  0
VERTEX
  8
0
  6
CONTINUOUS
 62
     1
 10
50.090140122
 20
118.583288528
 42
0.021438239
  0
VERTEX
  8
0
  6
CONTINUOUS
 62
     1
 10
49.994631125
 20
118.562518409
 42
0.0214723
  0
VERTEX
  8
0
  6
CONTINUOUS
 62
     1
 10
49.90133099
 20
118.533661883
 42
0.021516786
  0
VERTEX
  8
0
  6
CONTINUOUS
 62
     1
 10
49.810949787
 20
118.496938566
 42
0.021570466
  0
VERTEX
  8
0
  6
CONTINUOUS
 62
     1
 10
49.724175372
 20
118.452627944
 42
0.021631831
  0
VERTEX
  8
0
  6
CONTINUOUS
 62
     1
 10
49.641668151
 20
118.401067249
 42
0.02169913
  0
VERTEX
  8
0
  6
CONTINUOUS
 62
     1
 10
49.564056052
 20
118.342648887
 42
0.021770404
  0
VERTEX
  8
0
  6
CONTINUOUS
 62
     1
 10
49.491929752
 20
118.277817459
 42
0.021843541
  0
VERTEX
  8
0
  6
CONTINUOUS
 62
     1
 10
49.425838175
 20
118.207066371
 42
0.021916328
  0
VERTEX
  8
0
  6
CONTINUOUS
 62
     1
 10
49.366284317
 20
118.13093408
 42
0.021986521
  0
VERTEX
  8
0
  6
CONTINUOUS
 62
     1
 10
49.31372142
 20
118.05
 42
0.022051911
  0
VERTEX
  8
0
  6
CONTINUOUS
 62
     1
 10
49.268549518
 20
117.964880088
 42
0.022110407
  0
VERTEX
  8
0
  6
CONTINUOUS
 62
     1
 10
49.231112398
 20
117.876222158
 42
0.022160104
  0
VERTEX
  8
0
  6
CONTINUOUS
 62
     1
 10
49.201694979
 20
117.78470095
 42
0.022199363
  0
VERTEX
  8
0
  6
CONTINUOUS
 62
     1
 10
49.180521144
 20
117.691012995
 42
0.022226874
  0
VERTEX
  8
0
  6
CONTINUOUS
 62
     1
 10
49.167752039
 20
117.595871317
 42
0.02224171
  0
VERTEX
  8
0
  6
CONTINUOUS
 62
     1
 10
49.163484846
 20
117.5
 42
0.02224337
  0
VERTEX
  8
0
  6
CONTINUOUS
 62
     1
 10
49.167752039
 20
117.404128683
 42
0.022231798
  0
VERTEX
  8
0
  6
CONTINUOUS
 62
     1
 10
49.180521144
 20
117.308987005
 42
0.022207385
  0
VERTEX
  8
0
  6
CONTINUOUS
 62
     1
 10
49.201694979
 20
117.21529905
 42
0.022170955
  0
VERTEX
  8
0
  6
CONTINUOUS
 62
     1
 10
49.231112398
 20
117.123777842
 42
0.022123725
  0
VERTEX
  8
0
  6
CONTINUOUS
 62
     1
 10
49.268549518
 20
117.035119912
 42
0.02206726
  0
VERTEX
  8
0
  6
CONTINUOUS
 62
     1
 10
49.31372142
 20
116.95
 42
0.022003403
  0
VERTEX
  8
0
  6
CONTINUOUS
 62
     1
 10
49.366284317
 20
116.86906592
 42
0.021934207
  0
VERTEX
  8
0
  6
CONTINUOUS
 62
     1
 10
49.425838175
 20
116.792933629
 42
0.021861858
  0
VERTEX
  8
0
  6
CONTINUOUS
 62
     1
 10
49.491929752
 20
116.722182541
 42
0.021788599
  0
VERTEX
  8
0
  6
CONTINUOUS
 62
     1
 10
49.564056052
 20
116.657351113
 42
0.021716656
  0
VERTEX
  8
0
  6
CONTINUOUS
 62
     1
 10
49.641668151
 20
116.598932751
 42
0.021648173
  0
VERTEX
  8
0
  6
CONTINUOUS
 62
     1
 10
49.724175372
 20
116.547372056
 42
0.021585151
  0
VERTEX
  8
0
  6
CONTINUOUS
 62
     1
 10
49.810949787
 20
116.503061434
 42
0.021529399
  0
VERTEX
  8
0
  6
CONTINUOUS
 62
     1
 10
49.90133099
 20
116.466338117
 42
0.021482487
  0
VERTEX
  8
0
  6
CONTINUOUS
 62
     1
 10
49.994631125
 20
116.437481591
 42
0.021445721
  0
VERTEX
  8
0
  6
CONTINUOUS
 62
     1
 10
50.090140122
 20
116.416711472
 42
0.021420109
  0
VERTEX
  8
0
  6
CONTINUOUS
 62
     1
 10
50.1871311
 20
116.404185832
 42
0.021406348
  0
VERTEX
  8
0
  6
CONTINUOUS
 62
     1
 10
50.284865899
 20
116.4
 42
0.02140481
  0
VERTEX
  8
0
  6
CONTINUOUS
 62
     1
 10
50.382600697
 20
116.404185832
 42
0.021415537
  0
VERTEX
  8
0
  6
CONTINUOUS
 62
     1
 10
50.479591675
 20
116.416711472
 42
0.021438239
  0
VERTEX
  8
0
  6
CONTINUOUS
 62
     1
 10
50.575100672
 20
116.437481591
 42
0.0214723
  0
VERTEX
  8
0
  6
CONTINUOUS
 62
     1
 10
50.668400807
 20
116.466338117
 42
0.021516786
  0
VERTEX
  8
0
  6
CONTINUOUS
 62
     1
 10
50.75878201
 20
116.503061434
 42
0.021570466
  0
VERTEX
  8
0
  6
CONTINUOUS
 62
     1
 10
50.845556425
 20
116.547372056
 42
0.021631831
  0
VERTEX
  8
0
  6
CONTINUOUS
 62
     1
 10
50.928063647
 20
116.598932751
 42
0.02169913
  0
VERTEX
  8
0
  6
CONTINUOUS
 62
     1
 10
51.005675745
 20
116.657351113
 42
0.021770404
  0
VERTEX
  8
0
  6
CONTINUOUS
 62
     1
 10
51.077802045
 20
116.722182541
 42
0.021843541
  0
VERTEX
  8
0
  6
CONTINUOUS
 62
     1
 10
51.143893623
 20
116.792933629
 42
0.021916328
  0
VERTEX
  8
0
  6
CONTINUOUS
 62
     1
 10
51.20344748
 20
116.86906592
 42
0.021986521
  0
VERTEX
  8
0
  6
CONTINUOUS
 62
     1
 10
51.256010377
 20
116.95
 42
0.022051911
  0
VERTEX
  8
0
  6
CONTINUOUS
 62
     1
 10
51.301182279
 20
117.035119912
 42
0.022110407
  0
VERTEX
  8
0
  6
CONTINUOUS
 62
     1
 10
51.338619399
 20
117.123777842
 42
0.022160104
  0
VERTEX
  8
0
  6
CONTINUOUS
 62
     1
 10
51.368036818
 20
117.21529905
 42
0.022199363
  0
VERTEX
  8
0
  6
CONTINUOUS
 62
     1
 10
51.389210653
 20
117.308987005
 42
0.022226874
  0
VERTEX
  8
0
  6
CONTINUOUS
 62
     1
 10
51.401979758
 20
117.404128683
 42
0.02224171
  0
VERTEX
  8
0
  6
CONTINUOUS
 62
     1
 10
51.406246951
 20
117.5
 42
0.02224337
  0
VERTEX
  8
0
  6
CONTINUOUS
 62
     1
 10
51.401979758
 20
117.595871317
 42
0.022231798
  0
VERTEX
  8
0
  6
CONTINUOUS
 62
     1
 10
51.389210653
 20
117.691012995
 42
0.022207385
  0
VERTEX
  8
0
  6
CONTINUOUS
 62
     1
 10
51.368036818
 20
117.78470095
 42
0.022170955
  0
VERTEX
  8
0
  6
CONTINUOUS
 62
     1
 10
51.338619399
 20
117.876222158
 42
0.022123725
  0
VERTEX
  8
0
  6
CONTINUOUS
 62
     1
 10
51.301182279
 20
117.964880088
 42
0.02206726
  0
VERTEX
  8
0
  6
CONTINUOUS
 62
     1
 10
51.256010377
 20
118.05
 42
0.022003403
  0
VERTEX
  8
0
  6
CONTINUOUS
 62
     1
 10
51.20344748
 20
118.13093408
 42
0.021934207
  0
VERTEX
  8
0
  6
CONTINUOUS
 62
     1
 10
51.143893623
 20
118.207066371
 42
0.021861858
  0
VERTEX
  8
0
  6
CONTINUOUS
 62
     1
 10
51.077802045
 20
118.277817459
 42
0.021788599
  0
VERTEX
  8
0
  6
CONTINUOUS
 62
     1
 10
51.005675745
 20
118.342648887
 42
0.021716656
  0
VERTEX
  8
0
  6
CONTINUOUS
 62
     1
 10
50.928063647
 20
118.401067249
 42
0.021648173
  0
VERTEX
  8
0
  6
CONTINUOUS
 62
     1
 10
50.845556425
 20
118.452627944
 42
0.021585151
  0
VERTEX
  8
0
  6
CONTINUOUS
 62
     1
 10
50.75878201
 20
118.496938566
 42
0.021529399
  0
VERTEX
  8
0
  6
CONTINUOUS
 62
     1
 10
50.668400807
 20
118.533661883
 42
0.021482487
  0
VERTEX
  8
0
  6
CONTINUOUS
 62
     1
 10
50.575100672
 20
118.562518409
 42
0.021445721
  0
VERTEX
  8
0
  6
CONTINUOUS
 62
     1
 10
50.479591675
 20
118.583288528
 42
0.021420109
  0
VERTEX
  8
0
  6
CONTINUOUS
 62
     1
 10
50.382600697
 20
118.595814168
 42
0.021406348
  0
SEQEND
  8
0
  6
CONTINUOUS
 62
     1
  0
LINE
  8
0
  6
CONTINUOUS
 62
     2
 10
41.0
 20
114.5
 11
41.25
 21
114.066987298
  0
LINE
  8
0
  6
CONTINUOUS
 62
     2
 10
49.0
 20
114.5
 11
48.75
 21
114.066987298
  0
LINE
  8
0
  6
CONTINUOUS
 62
     1
 10
41.0
 20
114.066987298
 11
49.0
 21
114.066987298
  0
LINE
  8
0
  6
CONTINUOUS
 62
     1
 10
42.45
 20
130.048482756
 11
42.45
 21
120.5
  0
LINE
  8
0
  6
CONTINUOUS
 62
     1
 10
47.55
 20
130.048482756
 11
47.55
 21
120.5
  0
LINE
  8
0
  6
CONTINUOUS
 62
     1
 10
42.45
 20
130.048482756
 11
47.55
 21
130.048482756
  0
LINE
  8
0
  6
CONTINUOUS
 62
     1
 10
41.0
 20
114.5
 11
41.0
 21
114.0
  0
LINE
  8
0
  6
CONTINUOUS
 62
     2
 10
41.25
 20
114.0
 11
41.25
 21
114.066987298
  0
LINE
  8
0
  6
CONTINUOUS
 62
     1
 10
49.0
 20
114.0
 11
49.0
 21
114.5
  0
LINE
  8
0
  6
CONTINUOUS
 62
     2
 10
48.75
 20
114.0
 11
48.75
 21
114.066987298
  0
LINE
  8
0
  6
LTYPE3
 62
     2
 10
51.9
 20
117.5
 11
37.5
 21
117.5
  0
LINE
  8
0
  6
LTYPE3
 62
     2
 10
50.284865899
 20
115.7
 11
50.284865899
 21
119.3
  0
LINE
  8
5
  6
CONTINUOUS
 62
     2
 10
52.5
 20
120.5
 11
71.0
 21
120.5
  0
LINE
  8
5
  6
CONTINUOUS
 62
     2
 10
70.5
 20
120.5
 11
70.176476194
 21
119.292592717
  0
LINE
  8
5
  6
CONTINUOUS
 62
     2
 10
70.5
 20
120.5
 11
70.823523806
 21
119.292592717
  0
LINE
  8
5
  6
CONTINUOUS
 62
     2
 10
70.5
 20
120.5
 11
70.5
 21
114.0
  0
LINE
  8
5
  6
CONTINUOUS
 62
     2
 10
70.5
 20
114.0
 11
70.823523806
 21
115.207407283
  0
LINE
  8
5
  6
CONTINUOUS
 62
     2
 10
70.5
 20
114.0
 11
70.176476194
 21
115.207407283
  0
TEXT
  8
5
  6
CONTINUOUS
 62
     5
 10
70.0
 20
112.775
 30
0.05
 40
2.0
  1
（６．５）
 50
90.0
 41
0.875
 51
0.0
  7
KANJI11
  0
TEXT
  8
5
  6
CONTINUOUS
 62
     5
 10
73.0
 20
110.075
 30
0.05
 40
2.0
  1
２．５
 50
90.0
 41
0.875
 51
0.0
  7
KANJI11
  0
LINE
  8
5
  6
CONTINUOUS
 62
     2
 10
32.5
 20
86.0
 11
29.5
 21
86.0
  0
LINE
  8
5
  6
CONTINUOUS
 62
     2
 10
30.0
 20
86.0
 11
29.676476194
 21
84.792592717
  0
LINE
  8
5
  6
CONTINUOUS
 62
     2
 10
30.0
 20
86.0
 11
30.323523806
 21
84.792592717
  0
LINE
  8
5
  6
CONTINUOUS
 62
     2
 10
30.0
 20
86.0
 11
30.0
 21
82.5
  0
LINE
  8
5
  6
CONTINUOUS
 62
     2
 10
30.0
 20
82.5
 11
30.323523806
 21
83.707407283
  0
LINE
  8
5
  6
CONTINUOUS
 62
     2
 10
30.0
 20
82.5
 11
29.676476194
 21
83.707407283
  0
LINE
  8
5
  6
CONTINUOUS
 62
     2
 10
38.0
 20
82.5
 11
29.5
 21
82.5
  0
TEXT
  8
5
  6
CONTINUOUS
 62
     5
 10
29.5
 20
81.575
 30
0.05
 40
2.0
  1
３．５
 50
90.0
 41
0.875
 51
0.0
  7
KANJI11
  0
LINE
  8
5
  6
CONTINUOUS
 62
     2
 10
38.5
 20
50.74722325
 11
38.5
 21
39.0
  0
LINE
  8
5
  6
CONTINUOUS
 62
     2
 10
38.5
 20
39.5
 11
39.707407283
 21
39.176476194
  0
LINE
  8
5
  6
CONTINUOUS
 62
     2
 10
38.5
 20
39.5
 11
39.707407283
 21
39.823523806
  0
LINE
  8
5
  6
CONTINUOUS
 62
     2
 10
38.5
 20
39.5
 11
51.5
 21
39.5
  0
LINE
  8
5
  6
CONTINUOUS
 62
     2
 10
51.5
 20
39.5
 11
50.292592717
 21
39.823523806
  0
LINE
  8
5
  6
CONTINUOUS
 62
     2
 10
51.5
 20
39.5
 11
50.292592717
 21
39.176476194
  0
LINE
  8
5
  6
CONTINUOUS
 62
     2
 10
51.5
 20
50.74722325
 11
51.5
 21
39.0
  0
TEXT
  8
5
  6
CONTINUOUS
 62
     5
 10
41.425
 20
40.0
 30
0.05
 40
2.0
  1
対辺１３
 50
0.0
 41
0.875
 51
0.0
  7
KANJI11
  0
LINE
  8
5
  6
CONTINUOUS
 62
     2
 10
40.266666667
 20
78.5
 11
39.184134912
 21
77.875
  0
LINE
  8
5
  6
CONTINUOUS
 62
     2
 10
40.266666667
 20
78.5
 11
39.641666667
 21
77.417468245
  0
LINE
  8
5
  6
CONTINUOUS
 62
     2
 10
40.266666667
 20
78.5
 11
35.266666667
 21
73.5
  0
LINE
  8
5
  6
CONTINUOUS
 62
     2
 10
35.266666667
 20
73.5
 11
28.116666667
 21
73.5
  0
TEXT
  8
5
  6
CONTINUOUS
 62
     5
 10
28.116666667
 20
74.0
 30
0.05
 40
2.0
  1
Ｒ１／８
 50
0.0
 41
0.875
 51
0.0
  7
KANJI11
  0
LINE
  8
0
  6
LTYPE2
 62
     2
 10
36.5
 20
58.0
 11
36.5
 21
52.0
  0
LINE
  8
5
  6
CONTINUOUS
 62
     2
 10
46.060660172
 20
56.060660172
 11
47.143191927
 21
56.685660172
  0
LINE
  8
5
  6
CONTINUOUS
 62
     2
 10
46.060660172
 20
56.060660172
 11
46.685660172
 21
57.143191927
  0
LINE
  8
5
  6
CONTINUOUS
 62
     2
 10
46.060660172
 20
56.060660172
 11
54.0
 21
64.0
  0
LINE
  8
5
  6
CONTINUOUS
 62
     2
 10
54.0
 20
64.0
 11
66.55
 21
64.0
  0
TEXT
  8
5
  6
CONTINUOUS
 62
     5
 10
54.0
 20
64.5
 30
0.05
 40
2.0
  1
φ３圧力導入口
 50
0.0
 41
0.875
 51
0.0
  7
KANJI11
  0
LINE
  8
5
  6
CONTINUOUS
 62
     2
 10
35.0
 20
87.5
 11
34.375
 21
88.582531755
  0
LINE
  8
5
  6
CONTINUOUS
 62
     2
 10
35.0
 20
87.5
 11
33.917468245
 21
88.125
  0
LINE
  8
5
  6
CONTINUOUS
 62
     2
 10
35.0
 20
87.5
 11
30.0
 21
92.5
  0
LINE
  8
5
  6
CONTINUOUS
 62
     2
 10
30.0
 20
92.5
 11
19.25
 21
92.5
  0
TEXT
  8
5
  6
CONTINUOUS
 62
     5
 10
19.25
 20
93.0
 30
0.05
 40
2.0
  1
ドレンコック
 50
0.0
 41
0.875
 51
0.0
  7
KANJI11
  0
LINE
  8
0
  6
CONTINUOUS
 62
     1
 10
47.0
 20
135.048482756
 11
47.0
 21
130.048482756
  0
LINE
  8
0
  6
CONTINUOUS
 62
     1
 10
43.0
 20
130.048482756
 11
43.0
 21
135.048482756
  0
ARC
  8
0
  6
CONTINUOUS
 62
     1
 10
46.0
 20
134.298482756
 40
1.25
 50
36.869897646
 51
143.130102354
  0
ARC
  8
0
  6
CONTINUOUS
 62
     1
 10
44.0
 20
134.298482756
 40
1.25
 50
36.869897646
 51
143.130102354
  0
ARC
  8
0
  6
CONTINUOUS
 62
     1
 10
46.0
 20
135.798482756
 40
1.25
 50
216.869897646
 51
323.130102354
  0
LINE
  8
0
  6
LTYPE3
 62
     2
 10
45.0
 20
70.0
 11
45.0
 21
137.548482756
  0
LINE
  8
5
  6
CONTINUOUS
 62
     2
 10
37.0
 20
112.0
 11
37.0
 21
140.548482756
  0
LINE
  8
5
  6
CONTINUOUS
 62
     2
 10
37.0
 20
140.048482756
 11
38.207407283
 21
139.724958949
  0
LINE
  8
5
  6
CONTINUOUS
 62
     2
 10
37.0
 20
140.048482756
 11
38.207407283
 21
140.372006562
  0
LINE
  8
5
  6
CONTINUOUS
 62
     2
 10
37.0
 20
140.048482756
 11
53.0
 21
140.048482756
  0
LINE
  8
5
  6
CONTINUOUS
 62
     2
 10
53.0
 20
140.048482756
 11
51.792592717
 21
140.372006562
  0
LINE
  8
5
  6
CONTINUOUS
 62
     2
 10
53.0
 20
140.048482756
 11
51.792592717
 21
139.724958949
  0
LINE
  8
5
  6
CONTINUOUS
 62
     2
 10
53.0
 20
112.0
 11
53.0
 21
140.548482756
  0
TEXT
  8
5
  6
CONTINUOUS
 62
     5
 10
42.325
 20
140.548482756
 30
0.05
 40
2.0
  1
φ１６
 50
0.0
 41
0.875
 51
0.0
  7
KANJI11
  0
TEXT
  8
6
  6
CONTINUOUS
 62
     5
 10
75.35
 20
12.0
 30
0.05
 40
2.0
  1
ＨＶＪＳ－□ＪＧ
 50
0.0
 41
0.875
 51
0.0
  7
KANJI11
  0
TEXT
  8
6
  6
CONTINUOUS
 62
     5
 10
73.5
 20
6.5
 30
0.05
 40
2.0
  1
Ｈ－０１２４－Ａ００３
 50
0.0
 41
0.875
 51
0.0
  7
KANJI11
  0
ENDSEC
  0
EOF
